  0
SECTION
  2
HEADER
  9
$ACADVER
  1
AC1014
  9
$ACADMAINTVER
 70
     0
  9
$DWGCODEPAGE
  3
DOS932
  9
$INSBASE
 10
0.0
 20
0.0
 30
0.0
  9
$EXTMIN
 10
0.0
 20
0.0
 30
0.0
  9
$EXTMAX
 10
210.0
 20
297.0
 30
0.0
  9
$LIMMIN
 10
0.0
 20
0.0
  9
$LIMMAX
 10
12.0
 20
9.0
  9
$ORTHOMODE
 70
     0
  9
$REGENMODE
 70
     1
  9
$FILLMODE
 70
     0
  9
$QTEXTMODE
 70
     0
  9
$MIRRTEXT
 70
     1
  9
$DRAGMODE
 70
     2
  9
$LTSCALE
 40
2.1
  9
$OSMODE
 70
     0
  9
$ATTMODE
 70
     1
  9
$TEXTSIZE
 40
0.2
  9
$TRACEWID
 40
0.05
  9
$TEXTSTYLE
  7
STANDARD
  9
$CLAYER
  8
0
  9
$CELTYPE
  6
BYLAYER
  9
$CECOLOR
 62
   256
  9
$CELTSCALE
 40
1.0
  9
$DELOBJ
 70
     1
  9
$DISPSILH
 70
     0
  9
$DIMSCALE
 40
1.0
  9
$DIMASZ
 40
0.18
  9
$DIMEXO
 40
0.0625
  9
$DIMDLI
 40
0.38
  9
$DIMRND
 40
0.0
  9
$DIMDLE
 40
0.0
  9
$DIMEXE
 40
0.18
  9
$DIMTP
 40
0.0
  9
$DIMTM
 40
0.0
  9
$DIMTXT
 40
0.18
  9
$DIMCEN
 40
0.09
  9
$DIMTSZ
 40
0.0
  9
$DIMTOL
 70
     0
  9
$DIMLIM
 70
     0
  9
$DIMTIH
 70
     0
  9
$DIMTOH
 70
     0
  9
$DIMSE1
 70
     0
  9
$DIMSE2
 70
     0
  9
$DIMTAD
 70
     1
  9
$DIMZIN
 70
     0
  9
$DIMBLK
  1

  9
$DIMASO
 70
     1
  9
$DIMSHO
 70
     1
  9
$DIMPOST
  1

  9
$DIMAPOST
  1

  9
$DIMALT
 70
     0
  9
$DIMALTD
 70
     2
  9
$DIMALTF
 40
25.4
  9
$DIMLFAC
 40
1.0
  9
$DIMTOFL
 70
     0
  9
$DIMTVP
 40
0.0
  9
$DIMTIX
 70
     0
  9
$DIMSOXD
 70
     0
  9
$DIMSAH
 70
     0
  9
$DIMBLK1
  1

  9
$DIMBLK2
  1

  9
$DIMSTYLE
  2
STANDARD
  9
$DIMCLRD
 70
     0
  9
$DIMCLRE
 70
     0
  9
$DIMCLRT
 70
     0
  9
$DIMTFAC
 40
1.0
  9
$DIMGAP
 40
0.09
  9
$DIMJUST
 70
     0
  9
$DIMSD1
 70
     0
  9
$DIMSD2
 70
     0
  9
$DIMTOLJ
 70
     1
  9
$DIMTZIN
 70
     0
  9
$DIMALTZ
 70
     0
  9
$DIMALTTZ
 70
     0
  9
$DIMFIT
 70
     3
  9
$DIMUPT
 70
     0
  9
$DIMUNIT
 70
     2
  9
$DIMDEC
 70
     2
  9
$DIMTDEC
 70
     4
  9
$DIMALTU
 70
     2
  9
$DIMALTTD
 70
     2
  9
$DIMTXSTY
  7
STANDARD
  9
$DIMAUNIT
 70
     0
  9
$LUNITS
 70
     2
  9
$LUPREC
 70
     4
  9
$SKETCHINC
 40
0.1
  9
$FILLETRAD
 40
0.5
  9
$AUNITS
 70
     0
  9
$AUPREC
 70
     0
  9
$MENU
  1
.
  9
$ELEVATION
 40
0.0
  9
$PELEVATION
 40
0.0
  9
$THICKNESS
 40
0.0
  9
$LIMCHECK
 70
     0
  9
$BLIPMODE
 70
     0
  9
$CHAMFERA
 40
0.5
  9
$CHAMFERB
 40
0.5
  9
$CHAMFERC
 40
1.0
  9
$CHAMFERD
 40
0.0
  9
$SKPOLY
 70
     0
  9
$TDCREATE
 40
2450772.666465926
  9
$TDUPDATE
 40
2453649.600243056
  9
$TDINDWG
 40
0.0011564931
  9
$TDUSRTIMER
 40
0.0000000000
  9
$USRTIMER
 70
     1
  9
$ANGBASE
 50
0.0
  9
$ANGDIR
 70
     0
  9
$PDMODE
 70
     0
  9
$PDSIZE
 40
0.0
  9
$PLINEWID
 40
0.0
  9
$COORDS
 70
     1
  9
$SPLFRAME
 70
     0
  9
$SPLINETYPE
 70
     6
  9
$SPLINESEGS
 70
     8
  9
$ATTDIA
 70
     0
  9
$ATTREQ
 70
     1
  9
$HANDLING
 70
     1
  9
$HANDSEED
  5
186
  9
$SURFTAB1
 70
     6
  9
$SURFTAB2
 70
     6
  9
$SURFTYPE
 70
     6
  9
$SURFU
 70
     6
  9
$SURFV
 70
     6
  9
$UCSNAME
  2

  9
$UCSORG
 10
0.0
 20
0.0
 30
0.0
  9
$UCSXDIR
 10
1.0
 20
0.0
 30
0.0
  9
$UCSYDIR
 10
0.0
 20
1.0
 30
0.0
  9
$PUCSNAME
  2

  9
$PUCSORG
 10
0.0
 20
0.0
 30
0.0
  9
$PUCSXDIR
 10
1.0
 20
0.0
 30
0.0
  9
$PUCSYDIR
 10
0.0
 20
1.0
 30
0.0
  9
$USERI1
 70
     0
  9
$USERI2
 70
     0
  9
$USERI3
 70
     0
  9
$USERI4
 70
     0
  9
$USERI5
 70
     0
  9
$USERR1
 40
0.0
  9
$USERR2
 40
0.0
  9
$USERR3
 40
0.0
  9
$USERR4
 40
0.0
  9
$USERR5
 40
0.0
  9
$WORLDVIEW
 70
     1
  9
$SHADEDGE
 70
     3
  9
$SHADEDIF
 70
    70
  9
$TILEMODE
 70
     1
  9
$MAXACTVP
 70
    48
  9
$PINSBASE
 10
0.0
 20
0.0
 30
0.0
  9
$PLIMCHECK
 70
     0
  9
$PEXTMIN
 10
0.0
 20
0.0
 30
0.0
  9
$PEXTMAX
 10
0.0
 20
0.0
 30
0.0
  9
$PLIMMIN
 10
0.0
 20
0.0
  9
$PLIMMAX
 10
12.0
 20
9.0
  9
$UNITMODE
 70
     0
  9
$VISRETAIN
 70
     1
  9
$PLINEGEN
 70
     0
  9
$PSLTSCALE
 70
     1
  9
$TREEDEPTH
 70
  3020
  9
$PICKSTYLE
 70
     1
  9
$CMLSTYLE
  2
STANDARD
  9
$CMLJUST
 70
     0
  9
$CMLSCALE
 40
1.0
  9
$PROXYGRAPHICS
 70
     1
  9
$MEASUREMENT
 70
     0
  0
ENDSEC
  0
SECTION
  2
CLASSES
  0
CLASS
  1
LWPOLYLINE
  2
AcDbPolyline
  3
"AutoCAD"
 90
        0
280
     0
281
     1
  0
CLASS
  1
IMAGE
  2
AcDbRasterImage
  3
ISM
 90
      127
280
     0
281
     1
  0
CLASS
  1
OLE2FRAME
  2
AcDbOle2Frame
  3
""
 90
        0
280
     0
281
     1
  0
CLASS
  1
HATCH
  2
AcDbHatch
  3
"ACAD_SEDONA"
 90
        0
280
     0
281
     1
  0
CLASS
  1
DICTIONARYVAR
  2
AcDbDictionaryVar
  3
"AutoCAD"
 90
        0
280
     0
281
     0
  0
CLASS
  1
RASTERVARIABLES
  2
AcDbRasterVariables
  3
ISM
 90
        0
280
     0
281
     0
  0
CLASS
  1
IMAGEDEF
  2
AcDbRasterImageDef
  3
ISM
 90
        0
280
     0
281
     0
  0
CLASS
  1
IMAGEDEF_REACTOR
  2
AcDbRasterImageDefReactor
  3
ISM
 90
        1
280
     0
281
     0
  0
CLASS
  1
IDBUFFER
  2
AcDbIdBuffer
  3
"Acad"
 90
        0
280
     0
281
     0
  0
CLASS
  1
SPATIAL_FILTER
  2
AcDbSpatialFilter
  3
"Acad"
 90
        0
280
     0
281
     0
  0
CLASS
  1
XRECORD
  2
AcDbXrecord
  3
"<Built In>"
 90
        0
280
     0
281
     0
  0
CLASS
  1
SORTENTSTABLE
  2
AcDbSortentsTable
  3
"AutoCAD"
 90
        0
280
     0
281
     0
  0
CLASS
  1
LAYER_INDEX
  2
AcDbLayerIndex
  3
"Acad"
 90
        0
280
     0
281
     0
  0
CLASS
  1
SPATIAL_INDEX
  2
AcDbSpatialIndex
  3
"Acad"
 90
        0
280
     0
281
     0
  0
CLASS
  1
OBJECT_PTR
  2
CAseDLPNTableRecord
  3
"ASE-LPNTableRecord"
 90
        1
280
     0
281
     0
  0
CLASS
  1
LAYOUT
  2
AcDbLayout
  3
"AutoCAD 2000"
 90
        1
280
     0
281
     0
  0
CLASS
  1
PLOTSETTINGS
  2
AcDbPlotSettings
  3
"AutoCAD 2000"
 90
        1
280
     0
281
     0
  0
CLASS
  1
ACDBDICTIONARYWDFLT
  2
AcDbDictionaryWithDefault
  3
"AutoCAD 2000"
 90
        1
280
     0
281
     0
  0
CLASS
  1
ACDBPLACEHOLDER
  2
AcDbPlaceHolder
  3
"AutoCAD 2000"
 90
        1
280
     0
281
     0
  0
CLASS
  1
VBA_PROJECT
  2
AcDbVbaProject
  3
"acadvba"
 90
        1
280
     0
281
     0
  0
CLASS
  1
WIPEOUT
  2
AcDbWipeout
  3
WipeOut|AutoCAD Express Tool|expresstools@autodesk.com
 90
      127
280
     0
281
     1
  0
CLASS
  1
WIPEOUTVARIABLES
  2
AcDbWipeoutVariables
  3
WipeOut|AutoCAD Express Tool|expresstools@autodesk.com
 90
        0
280
     0
281
     0
  0
CLASS
  1
RTEXT
  2
RText
  3
RText|AutoCAD Express Tool|expresstools@autodesk.com
 90
        0
280
     0
281
     1
  0
CLASS
  1
ARCALIGNEDTEXT
  2
AcDbArcAlignedText
  3
ATEXT|AutoCAD Express Tool|expresstools@autodesk.com
 90
        0
280
     0
281
     1
  0
ENDSEC
  0
SECTION
  2
TABLES
  0
TABLE
  2
VPORT
  5
8
100
AcDbSymbolTable
 70
     1
  0
VPORT
  5
25
100
AcDbSymbolTableRecord
100
AcDbViewportTableRecord
  2
*ACTIVE
 70
     0
 10
0.0
 20
0.0
 11
1.0
 21
1.0
 12
105.0
 22
148.5
 13
0.0
 23
0.0
 14
0.5
 24
0.5
 15
0.5
 25
0.5
 16
0.0
 26
0.0
 36
1.0
 17
0.0
 27
0.0
 37
0.0
 40
297.0
 41
0.707071
 42
50.0
 43
0.0
 44
0.0
 50
0.0
 51
0.0
 71
     0
 72
   100
 73
     1
 74
     1
 75
     0
 76
     0
 77
     0
 78
     0
  0
ENDTAB
  0
TABLE
  2
LTYPE
  5
5
100
AcDbSymbolTable
 70
     5
  0
LTYPE
  5
12
100
AcDbSymbolTableRecord
100
AcDbLinetypeTableRecord
  2
BYBLOCK
 70
    64
  3

 72
    65
 73
     0
 40
0.0
  0
LTYPE
  5
13
100
AcDbSymbolTableRecord
100
AcDbLinetypeTableRecord
  2
BYLAYER
 70
    64
  3

 72
    65
 73
     0
 40
0.0
  0
LTYPE
  5
14
100
AcDbSymbolTableRecord
100
AcDbLinetypeTableRecord
  2
CONTINUOUS
 70
     0
  3
Solid line
 72
    65
 73
     0
 40
0.0
  0
LTYPE
  5
A5
100
AcDbSymbolTableRecord
100
AcDbLinetypeTableRecord
  2
DOT
 70
     0
  3
DOT
 72
    65
 73
     2
 40
0.25
 49
0.0
 74
     0
 49
-0.25
 74
     0
  0
LTYPE
  5
B4
100
AcDbSymbolTableRecord
100
AcDbLinetypeTableRecord
  2
DASHDOTX2
 70
     0
  3
DASHDOTX2
 72
    65
 73
     4
 40
1.75
 49
0.75
 74
     0
 49
-0.5
 74
     0
 49
0.0
 74
     0
 49
-0.5
 74
     0
  0
ENDTAB
  0
TABLE
  2
LAYER
  5
2
100
AcDbSymbolTable
 70
     2
  0
LAYER
  5
E
100
AcDbSymbolTableRecord
100
AcDbLayerTableRecord
  2
0
 70
     0
 62
     7
  6
CONTINUOUS
  0
LAYER
  5
32
100
AcDbSymbolTableRecord
100
AcDbLayerTableRecord
  2
\U+5BF8\U+6CD5
 70
     0
 62
     7
  6
CONTINUOUS
  0
ENDTAB
  0
TABLE
  2
STYLE
  5
3
100
AcDbSymbolTable
 70
     2
  0
STYLE
  5
F
100
AcDbSymbolTableRecord
100
AcDbTextStyleTableRecord
  2
STANDARD
 70
     0
 40
0.0
 41
1.0
 50
0.0
 71
     0
 42
0.2
  3
txt.shx
  4

  0
STYLE
  5
37
100
AcDbSymbolTableRecord
100
AcDbTextStyleTableRecord
  2
HORIZONTALBIGFONT
 70
     0
 40
0.0
 41
1.0
 50
0.0
 71
     0
 42
0.2
  3
txt.shx
  4
bigfont.shx
  0
ENDTAB
  0
TABLE
  2
VIEW
  5
6
100
AcDbSymbolTable
 70
     0
  0
ENDTAB
  0
TABLE
  2
UCS
  5
7
100
AcDbSymbolTable
 70
     0
  0
ENDTAB
  0
TABLE
  2
APPID
  5
9
100
AcDbSymbolTable
 70
     1
  0
APPID
  5
10
100
AcDbSymbolTableRecord
100
AcDbRegAppTableRecord
  2
ACAD
 70
     0
  0
ENDTAB
  0
TABLE
  2
DIMSTYLE
  5
A
100
AcDbSymbolTable
 70
     1
  0
DIMSTYLE
105
1D
100
AcDbSymbolTableRecord
100
AcDbDimStyleTableRecord
  2
STANDARD
 70
     0
  3

  4

  5

  6

  7

 40
1.0
 41
0.18
 42
0.0625
 43
0.38
 44
0.18
 45
0.0
 46
0.0
 47
0.0
 48
0.0
 71
     0
 72
     0
 73
     1
 74
     1
 75
     0
 76
     0
 77
     0
 78
     0
140
0.18
141
0.09
142
0.0
143
25.4
144
1.0
145
0.0
146
1.0
147
0.09
170
     0
171
     2
172
     0
173
     0
174
     0
175
     0
176
     0
177
     0
178
     0
270
     2
271
     4
272
     4
273
     2
274
     2
275
     0
280
     0
281
     0
282
     0
283
     1
284
     0
285
     0
286
     0
287
     3
288
     0
340
F
  0
ENDTAB
  0
TABLE
  2
BLOCK_RECORD
  5
1
100
AcDbSymbolTable
 70
     8
  0
BLOCK_RECORD
  5
18
100
AcDbSymbolTableRecord
100
AcDbBlockTableRecord
  2
*MODEL_SPACE
  0
BLOCK_RECORD
  5
15
100
AcDbSymbolTableRecord
100
AcDbBlockTableRecord
  2
*PAPER_SPACE
  0
BLOCK_RECORD
  5
10A
100
AcDbSymbolTableRecord
100
AcDbBlockTableRecord
  2
___\U+6C34\U+5E73__\U+5B0
  0
BLOCK_RECORD
  5
117
100
AcDbSymbolTableRecord
100
AcDbBlockTableRecord
  2
___\U+5782\U+76F4__\U+5B1
  0
BLOCK_RECORD
  5
124
100
AcDbSymbolTableRecord
100
AcDbBlockTableRecord
  2
\U+FF88\U+FF7C\U+FF9E\U+5C71\U+4ED8\U+304D \U+7A742
  0
BLOCK_RECORD
  5
132
100
AcDbSymbolTableRecord
100
AcDbBlockTableRecord
  2
\U+76BF\U+7A74
  0
BLOCK_RECORD
  5
139
100
AcDbSymbolTableRecord
100
AcDbBlockTableRecord
  2
\U+4E2D\U+5FC3\U+7DDA
  0
BLOCK_RECORD
  5
13E
100
AcDbSymbolTableRecord
100
AcDbBlockTableRecord
  2
\U+7AEF\U+5B50
  0
BLOCK_RECORD
  5
142
100
AcDbSymbolTableRecord
100
AcDbBlockTableRecord
  2
\U+6E9D\U+4ED8\U+304D\U+FF8E\U+FF9E\U+FF99\U+FF84
  0
BLOCK_RECORD
  5
170
100
AcDbSymbolTableRecord
100
AcDbBlockTableRecord
  2
\U+7A74\U+4ED8\U+304D\U+FF8E\U+FF9E\U+FF99\U+FF84
  0
ENDTAB
  0
ENDSEC
  0
SECTION
  2
BLOCKS
  0
BLOCK
  5
19
100
AcDbEntity
  8
0
100
AcDbBlockBegin
  2
*MODEL_SPACE
 70
     0
 10
0.0
 20
0.0
 30
0.0
  3
*MODEL_SPACE
  1

  0
ENDBLK
  5
1A
100
AcDbEntity
  8
0
100
AcDbBlockEnd
  0
BLOCK
  5
16
100
AcDbEntity
 67
     1
  8
0
100
AcDbBlockBegin
  2
*PAPER_SPACE
 70
     0
 10
0.0
 20
0.0
 30
0.0
  3
*PAPER_SPACE
  1

  0
ENDBLK
  5
17
100
AcDbEntity
 67
     1
  8
0
100
AcDbBlockEnd
  0
BLOCK
  5
10B
100
AcDbEntity
  8
0
100
AcDbBlockBegin
  2
___\U+6C34\U+5E73__\U+5B0
 70
     2
 10
0.0
 20
0.0
 30
0.0
  3
___\U+6C34\U+5E73__\U+5B0
  1

  0
ATTDEF
  5
10C
100
AcDbEntity
  8
0
100
AcDbText
 10
37.5
 20
45.653333
 30
0.0
 40
0.2
  1
0.00
100
AcDbAttributeDefinition
  3
\U+7CBE\U+5EA6
  2
LPREC
 70
     0
  0
ATTDEF
  5
10D
100
AcDbEntity
  8
0
100
AcDbText
 10
37.5
 20
45.653333
 30
0.0
 40
0.2
  1
\U+56F3\U+9762\U+FF8D\U+FF9F\U+FF70\U+FF7C\U+FF9E\U+306E\U+5358\U+4F4D\U+3092\U+4F7F\U+7528
100
AcDbAttributeDefinition
  3
\U+5358\U+4F4D
  2
LUNITS
 70
     0
  0
ATTDEF
  5
10E
100
AcDbEntity
  8
0
100
AcDbText
 10
37.5
 20
45.653333
 30
0.0
 40
0.2
  1
\U+5358\U+4F4D\U+3092\U+975E\U+8868\U+793A
100
AcDbAttributeDefinition
  3
\U+5358\U+4F4D\U+306E\U+8868\U+793A
  2
SHOWUNITS
 70
     0
  0
ATTDEF
  5
10F
100
AcDbEntity
  8
0
100
AcDbText
 10
37.5
 20
45.653333
 30
0.0
 40
0.2
  1
\U+53CC\U+65B9
100
AcDbAttributeDefinition
  3
\U+5BF8\U+6CD5\U+88DC\U+52A9\U+7DDA
  2
EXTENSIONS
 70
     0
  0
ATTDEF
  5
110
100
AcDbEntity
  8
0
100
AcDbText
 10
37.5
 20
45.653333
 30
0.0
 40
0.2
  1
0
100
AcDbAttributeDefinition
  3
\U+89D2\U+5EA6
  2
ANGLE
 70
     0
  0
LWPOLYLINE
  5
111
100
AcDbEntity
  8
\U+5BF8\U+6CD5
  6
CONTINUOUS
100
AcDbPolyline
 90
        2
 70
     1
 10
37.5
 20
55.475556
 10
37.5
 20
47.064444
  0
LWPOLYLINE
  5
112
100
AcDbEntity
  8
\U+5BF8\U+6CD5
  6
CONTINUOUS
100
AcDbPolyline
 90
        2
 70
     1
 10
62.5
 20
55.475556
 10
62.5
 20
47.064444
  0
LINE
  5
113
100
AcDbEntity
  8
\U+5BF8\U+6CD5
  6
CONTINUOUS
100
AcDbLine
 10
50.0
 20
52.653333
 30
0.0
 11
37.5
 21
52.653333
 31
0.0
  0
LINE
  5
114
100
AcDbEntity
  8
\U+5BF8\U+6CD5
  6
CONTINUOUS
100
AcDbLine
 10
50.0
 20
52.653333
 30
0.0
 11
62.5
 21
52.653333
 31
0.0
  0
MTEXT
  5
115
100
AcDbEntity
  8
\U+5BF8\U+6CD5
100
AcDbMText
 10
50.0
 20
55.052851
 30
0.0
 40
2.425338
 41
8.732714
 71
     5
 72
     5
  1
\C7;\fＭＳ ゴシック|b0|i0|;\H2.4253379702568;25.00
  7
HORIZONTALBIGFONT
  0
ENDBLK
  5
116
100
AcDbEntity
  8
0
100
AcDbBlockEnd
  0
BLOCK
  5
118
100
AcDbEntity
  8
0
100
AcDbBlockBegin
  2
___\U+5782\U+76F4__\U+5B1
 70
     2
 10
0.0
 20
0.0
 30
0.0
  3
___\U+5782\U+76F4__\U+5B1
  1

  0
ATTDEF
  5
119
100
AcDbEntity
  8
0
100
AcDbText
 10
55.0
 20
40.0
 30
0.0
 40
0.2
  1
0.00
100
AcDbAttributeDefinition
  3
\U+7CBE\U+5EA6
  2
LPREC
 70
     0
  0
ATTDEF
  5
11A
100
AcDbEntity
  8
0
100
AcDbText
 10
55.0
 20
40.0
 30
0.0
 40
0.2
  1
\U+56F3\U+9762\U+FF8D\U+FF9F\U+FF70\U+FF7C\U+FF9E\U+306E\U+5358\U+4F4D\U+3092\U+4F7F\U+7528
100
AcDbAttributeDefinition
  3
\U+5358\U+4F4D
  2
LUNITS
 70
     0
  0
ATTDEF
  5
11B
100
AcDbEntity
  8
0
100
AcDbText
 10
55.0
 20
40.0
 30
0.0
 40
0.2
  1
\U+5358\U+4F4D\U+3092\U+975E\U+8868\U+793A
100
AcDbAttributeDefinition
  3
\U+5358\U+4F4D\U+306E\U+8868\U+793A
  2
SHOWUNITS
 70
     0
  0
ATTDEF
  5
11C
100
AcDbEntity
  8
0
100
AcDbText
 10
55.0
 20
40.0
 30
0.0
 40
0.2
  1
\U+53CC\U+65B9
100
AcDbAttributeDefinition
  3
\U+5BF8\U+6CD5\U+88DC\U+52A9\U+7DDA
  2
EXTENSIONS
 70
     0
  0
ATTDEF
  5
11D
100
AcDbEntity
  8
0
100
AcDbText
 10
55.0
 20
40.0
 30
0.0
 40
0.2
  1
1.5707963267949
100
AcDbAttributeDefinition
  3
\U+89D2\U+5EA6
  2
ANGLE
 70
     0
  0
LWPOLYLINE
  5
11E
100
AcDbEntity
  8
\U+5BF8\U+6CD5
  6
CONTINUOUS
100
AcDbPolyline
 90
        2
 70
     1
 10
45.177778
 20
40.0
 10
53.588889
 20
40.0
  0
LWPOLYLINE
  5
11F
100
AcDbEntity
  8
\U+5BF8\U+6CD5
  6
CONTINUOUS
100
AcDbPolyline
 90
        2
 70
     1
 10
45.177778
 20
65.0
 10
53.588889
 20
65.0
  0
LINE
  5
120
100
AcDbEntity
  8
\U+5BF8\U+6CD5
  6
CONTINUOUS
100
AcDbLine
 10
48.0
 20
52.5
 30
0.0
 11
48.0
 21
40.0
 31
0.0
  0
LINE
  5
121
100
AcDbEntity
  8
\U+5BF8\U+6CD5
  6
CONTINUOUS
100
AcDbLine
 10
48.0
 20
52.5
 30
0.0
 11
48.0
 21
65.0
 31
0.0
  0
MTEXT
  5
122
100
AcDbEntity
  8
\U+5BF8\U+6CD5
100
AcDbMText
 10
45.600483
 20
52.5
 30
0.0
 40
2.425338
 41
8.732714
 71
     5
 72
     5
  1
\C7;\fＭＳ ゴシック|b0|i0|;\H2.4253379702568;25.00
  7
HORIZONTALBIGFONT
 11
0.0
 21
1.0
 31
0.0
  0
ENDBLK
  5
123
100
AcDbEntity
  8
0
100
AcDbBlockEnd
  0
BLOCK
  5
125
100
AcDbEntity
  8
0
100
AcDbBlockBegin
  2
\U+FF88\U+FF7C\U+FF9E\U+5C71\U+4ED8\U+304D \U+7A742
 70
     2
 10
0.0
 20
0.0
 30
0.0
  3
\U+FF88\U+FF7C\U+FF9E\U+5C71\U+4ED8\U+304D \U+7A742
  1

  0
ATTDEF
  5
126
100
AcDbEntity
  8
0
100
AcDbText
 10
25.0
 20
25.0
 30
0.0
 40
0.2
  1
M5
100
AcDbAttributeDefinition
  3
\U+FF88\U+FF7C\U+FF9E\U+306E\U+76F4\U+5F84
  2
THREAD
 70
     0
  0
ATTDEF
  5
127
100
AcDbEntity
  8
0
100
AcDbText
 10
25.0
 20
25.0
 30
0.0
 40
0.2
  1
0.19685039370079
100
AcDbAttributeDefinition
  3
\U+FF88\U+FF7C\U+FF9E\U+306E\U+76F4\U+5F84
  2
DIAMETER
 70
     0
  0
ATTDEF
  5
128
100
AcDbEntity
  8
0
100
AcDbText
 10
25.0
 20
25.0
 30
0.0
 40
0.2
  1
0.59055118110236
100
AcDbAttributeDefinition
  3
\U+7A74\U+306E\U+9577\U+3055 
  2
LENGTH
 70
     0
  0
ATTDEF
  5
129
100
AcDbEntity
  8
0
100
AcDbText
 10
25.0
 20
25.0
 30
0.0
 40
0.2
  1
0.39370078740157
100
AcDbAttributeDefinition
  3
\U+FF88\U+FF7C\U+FF9E\U+90E8\U+306E\U+9577\U+3055
  2
THREADLEN
 70
     0
  0
LINE
  5
12A
100
AcDbEntity
  8
0
  6
CONTINUOUS
 62
     7
100
AcDbLine
 10
31.3456
 20
27.0
 30
0.0
 11
31.3456
 21
23.0
 31
0.0
  0
LINE
  5
12B
100
AcDbEntity
  8
0
  6
CONTINUOUS
 62
     7
100
AcDbLine
 10
17.542333
 20
27.0
 30
0.0
 11
31.3456
 21
27.0
 31
0.0
  0
LINE
  5
12C
100
AcDbEntity
  8
0
  6
CONTINUOUS
 62
     7
100
AcDbLine
 10
31.3456
 20
27.0
 30
0.0
 11
32.5
 21
25.0
 31
0.0
  0
LINE
  5
12D
100
AcDbEntity
  8
0
  6
CONTINUOUS
 62
     7
100
AcDbLine
 10
32.5
 20
25.0
 30
0.0
 11
31.3456
 21
23.0
 31
0.0
  0
LINE
  5
12E
100
AcDbEntity
  8
0
  6
CONTINUOUS
 62
     7
100
AcDbLine
 10
31.3456
 20
23.0
 30
0.0
 11
17.542333
 21
23.0
 31
0.0
  0
LWPOLYLINE
  5
12F
100
AcDbEntity
  8
0
  6
CONTINUOUS
 62
     7
100
AcDbPolyline
 90
        8
 70
     0
 10
17.511024
 20
27.5
 10
27.5
 20
27.5
 10
28.799038
 20
27.0
 10
27.5
 20
27.0
 10
27.5
 20
23.0
 10
28.799038
 20
23.0
 10
27.5
 20
22.5
 10
17.511024
 20
22.5
  0
LINE
  5
130
100
AcDbEntity
  8
0
  6
CONTINUOUS
 62
     7
100
AcDbLine
 10
27.5
 20
27.5
 30
0.0
 11
27.5
 21
22.5
 31
0.0
  0
ENDBLK
  5
131
100
AcDbEntity
  8
0
100
AcDbBlockEnd
  0
BLOCK
  5
133
100
AcDbEntity
  8
0
100
AcDbBlockBegin
  2
\U+76BF\U+7A74
 70
     0
 10
0.0
 20
0.0
 30
0.0
  3
\U+76BF\U+7A74
  1

  0
LWPOLYLINE
  5
134
100
AcDbEntity
  8
0
  6
CONTINUOUS
 62
     7
100
AcDbPolyline
 90
        2
 70
     1
 10
20.0
 20
25.0
 42
-1.0
 10
30.0
 20
25.0
 42
-1.0
  0
ELLIPSE
  5
135
100
AcDbEntity
  8
0
  6
CONTINUOUS
 62
     7
100
AcDbEllipse
 10
24.984375
 20
25.0
 30
0.0
 11
0.0
 21
-1.7578124406144995
 31
0.0
210
0.0
220
0.0
230
1.0
 40
0.986667
 41
1.5707965774554322
 42
4.7123887297241538
  0
ELLIPSE
  5
136
100
AcDbEntity
  8
0
  6
CONTINUOUS
 62
     7
100
AcDbEllipse
 10
24.984375
 20
25.0
 30
0.0
 11
0.0
 21
-1.7578124406144995
 31
0.0
210
0.0
220
0.0
230
1.0
 40
0.986667
 41
4.7123892310452247
 42
1.5707960761343613
  0
LWPOLYLINE
  5
137
100
AcDbEntity
  8
0
  6
CONTINUOUS
 62
     7
100
AcDbPolyline
 90
        4
 70
     1
 10
26.606969
 20
26.915111
 42
-0.895043
 10
23.776053
 20
22.763495
 42
0.895043
 10
26.606969
 20
26.915111
 42
0.895043
 10
23.010009
 20
23.406283
 42
-0.895043
  0
ENDBLK
  5
138
100
AcDbEntity
  8
0
100
AcDbBlockEnd
  0
BLOCK
  5
13A
100
AcDbEntity
  8
0
100
AcDbBlockBegin
  2
\U+4E2D\U+5FC3\U+7DDA
 70
     0
 10
0.0
 20
0.0
 30
0.0
  3
\U+4E2D\U+5FC3\U+7DDA
  1

  0
LINE
  5
13B
100
AcDbEntity
  8
\U+5BF8\U+6CD5
  6
DASHDOTX2
100
AcDbLine
 10
50.0
 20
40.0
 30
0.0
 11
50.0
 21
60.0
 31
0.0
  0
LINE
  5
13C
100
AcDbEntity
  8
\U+5BF8\U+6CD5
  6
DASHDOTX2
100
AcDbLine
 10
40.0
 20
50.0
 30
0.0
 11
60.0
 21
50.0
 31
0.0
  0
ENDBLK
  5
13D
100
AcDbEntity
  8
0
100
AcDbBlockEnd
  0
BLOCK
  5
13F
100
AcDbEntity
  8
0
100
AcDbBlockBegin
  2
\U+7AEF\U+5B50
 70
     0
 10
0.0
 20
0.0
 30
0.0
  3
\U+7AEF\U+5B50
  1

  0
LWPOLYLINE
  5
140
100
AcDbEntity
  8
0
  6
CONTINUOUS
 62
     7
100
AcDbPolyline
 90
        2
 70
     1
 10
0.4
 20
1.15
 42
-1.0
 10
1.9
 20
1.15
 42
-1.0
  0
ENDBLK
  5
141
100
AcDbEntity
  8
0
100
AcDbBlockEnd
  0
BLOCK
  5
143
100
AcDbEntity
  8
0
100
AcDbBlockBegin
  2
\U+6E9D\U+4ED8\U+304D\U+FF8E\U+FF9E\U+FF99\U+FF84
 70
     2
 10
0.0
 20
0.0
 30
0.0
  3
\U+6E9D\U+4ED8\U+304D\U+FF8E\U+FF9E\U+FF99\U+FF84
  1

  0
LWPOLYLINE
  5
144
100
AcDbEntity
  8
0
  6
CONTINUOUS
 62
     7
100
AcDbPolyline
 90
       30
 70
     0
 10
0.290617
 20
9.358071
 10
0.348742
 20
9.590557
 10
0.464988
 20
9.881184
 10
0.523113
 20
10.171811
 10
3.836162
 20
12.089892
 10
7.730439
 20
12.380493
 10
11.566601
 20
7.556246
 10
8.253552
 20
5.638165
 10
7.84667
 20
5.870651
 10
7.614183
 20
6.045022
 10
7.497953
 20
6.161278
 10
7.149211
 20
6.393764
 10
6.800469
 20
6.626276
 10
6.567957
 20
6.858762
 10
6.509842
 20
6.858762
 10
6.219215
 20
7.149389
 10
5.986729
 20
7.43999
 10
5.754243
 20
7.730617
 10
6.393586
 20
6.742506
 10
6.916699
 20
5.754421
 10
7.323582
 20
4.708195
 10
7.614183
 20
3.661969
 10
7.730439
 20
3.661969
 10
9.764751
 20
4.824425
 10
9.764751
 20
3.080715
 10
7.730439
 20
1.860131
 10
7.614183
 20
1.860131
 10
0.0
 20
6.277534
 10
0.0
 20
6.393764
 10
1.453088
 20
7.207504
  0
LWPOLYLINE
  5
145
100
AcDbEntity
  8
0
  6
CONTINUOUS
 62
     7
100
AcDbPolyline
 90
       12
 70
     0
 10
0.348742
 20
9.590557
 10
0.290617
 20
9.358071
 10
0.232494
 20
9.067444
 10
0.174371
 20
8.834958
 10
0.116247
 20
8.602472
 10
0.058124
 20
8.36996
 10
0.0
 20
8.195589
 10
0.0
 20
8.079359
 10
7.614183
 20
3.661969
 10
7.323582
 20
4.708195
 10
6.916699
 20
5.754421
 10
6.393586
 20
6.742506
  0
LWPOLYLINE
  5
146
100
AcDbEntity
  8
0
  6
CONTINUOUS
 62
     7
100
AcDbPolyline
 90
       24
 70
     0
 10
0.523113
 20
10.171811
 10
0.639359
 20
10.11367
 10
0.755607
 20
10.055555
 10
0.81373
 20
10.055555
 10
0.929978
 20
9.99744
 10
1.104349
 20
9.939299
 10
1.220594
 20
9.939299
 10
1.278717
 20
9.939299
 10
1.453088
 20
9.939299
 10
1.627459
 20
9.939299
 10
1.859953
 20
9.939299
 10
2.789936
 20
9.881184
 10
3.778021
 20
9.416186
 10
4.824247
 20
8.718702
 10
5.754243
 20
7.730617
 10
5.521731
 20
8.021218
 10
5.289245
 20
8.311845
 10
5.114874
 20
8.602472
 10
4.940503
 20
8.951214
 10
4.824247
 20
9.299956
 10
4.649876
 20
9.648698
 10
4.533646
 20
10.055555
 10
4.41739
 20
10.462412
 10
7.730439
 20
12.380493
  0
LINE
  5
147
100
AcDbEntity
  8
0
  6
CONTINUOUS
 62
     7
100
AcDbLine
 10
0.639359
 20
10.11367
 30
0.0
 11
0.81373
 21
10.055555
 31
0.0
  0
LINE
  5
148
100
AcDbEntity
  8
0
  6
CONTINUOUS
 62
     7
100
AcDbLine
 10
1.104349
 20
9.939299
 30
0.0
 11
1.278717
 21
9.939299
 31
0.0
  0
LWPOLYLINE
  5
149
100
AcDbEntity
  8
0
  6
CONTINUOUS
 62
     7
100
AcDbPolyline
 90
       15
 70
     0
 10
1.220594
 20
9.764928
 10
0.697484
 20
9.416186
 10
0.639359
 20
9.416186
 10
0.290617
 20
8.834958
 10
0.0
 20
8.079359
 10
0.290617
 20
8.834958
 10
0.697484
 20
9.416186
 10
1.220594
 20
9.764928
 10
1.859953
 20
9.939299
 10
2.092449
 20
9.99744
 10
2.383066
 20
9.99744
 10
2.67368
 20
10.055555
 10
2.964307
 20
10.11367
 10
2.906166
 20
10.11367
 10
2.67368
 20
10.055555
  0
LWPOLYLINE
  5
14A
100
AcDbEntity
  8
0
  6
CONTINUOUS
 62
     7
100
AcDbPolyline
 90
        4
 70
     0
 10
1.859953
 20
2.266998
 10
2.092449
 20
1.976379
 10
2.383066
 20
1.685762
 10
2.615565
 20
1.511391
  0
LWPOLYLINE
  5
14B
100
AcDbEntity
  8
0
  6
CONTINUOUS
 62
     7
100
AcDbPolyline
 90
       17
 70
     0
 10
2.092449
 20
1.976379
 10
2.324943
 20
1.743885
 10
2.789936
 20
1.278895
 10
3.778021
 20
0.523291
 10
4.824247
 20
0.116425
 10
5.289245
 20
0.058301
 10
5.754243
 20
0.000178
 10
5.986729
 20
0.058301
 10
6.219215
 20
0.058301
 10
6.509842
 20
0.116425
 10
6.800469
 20
0.174549
 10
7.149211
 20
0.232672
 10
7.497953
 20
0.290794
 10
7.84667
 20
0.407043
 10
8.253552
 20
0.523291
 10
11.566601
 20
2.441367
 10
11.566601
 20
7.556246
  0
LWPOLYLINE
  5
14C
100
AcDbEntity
  8
0
  6
CONTINUOUS
 62
     7
100
AcDbPolyline
 90
       14
 70
     0
 10
2.383066
 20
1.685762
 10
2.324943
 20
1.743885
 10
1.859953
 20
2.266998
 10
1.627459
 20
2.557602
 10
1.220594
 20
3.196971
 10
0.697484
 20
4.185082
 10
0.639359
 20
4.243197
 10
0.290617
 20
5.289423
 10
0.0
 20
6.277534
 10
0.290617
 20
5.289423
 10
0.697484
 20
4.185082
 10
1.220594
 20
3.196971
 10
1.859953
 20
2.266998
 10
2.789936
 20
1.278895
  0
LWPOLYLINE
  5
14D
100
AcDbEntity
  8
0
  6
CONTINUOUS
 62
     7
100
AcDbPolyline
 90
        5
 70
     0
 10
2.964307
 20
10.11367
 10
3.254908
 20
10.171811
 10
3.60365
 20
10.288041
 10
4.010533
 20
10.346182
 10
4.41739
 20
10.462412
  0
LWPOLYLINE
  5
14E
100
AcDbEntity
  8
0
  6
CONTINUOUS
 62
     7
100
AcDbPolyline
 90
       11
 70
     0
 10
3.778021
 20
0.523291
 10
4.41739
 20
0.174549
 10
4.533646
 20
0.116425
 10
4.649876
 20
0.058301
 10
4.824247
 20
0.058301
 10
4.940503
 20
0.000178
 10
5.114874
 20
0.000178
 10
5.289245
 20
0.000178
 10
5.521731
 20
0.000178
 10
5.754243
 20
0.000178
 10
4.824247
 20
0.116425
  0
LWPOLYLINE
  5
14F
100
AcDbEntity
  8
0
  6
CONTINUOUS
 62
     7
100
AcDbPolyline
 90
        3
 70
     0
 10
4.940503
 20
8.951214
 10
4.998618
 20
8.893073
 10
5.114874
 20
8.602472
  0
LWPOLYLINE
  5
150
100
AcDbEntity
  8
0
  6
CONTINUOUS
 62
     7
100
AcDbPolyline
 90
        3
 70
     0
 10
5.289245
 20
0.000178
 10
5.34736
 20
0.000178
 10
5.521731
 20
0.000178
  0
LWPOLYLINE
  5
151
100
AcDbEntity
  8
0
  6
CONTINUOUS
 62
     7
100
AcDbPolyline
 90
        8
 70
     0
 10
5.754243
 20
0.000178
 10
6.393586
 20
0.174549
 10
6.916699
 20
0.581414
 10
7.323582
 20
1.162649
 10
7.614183
 20
1.860131
 10
7.323582
 20
1.162649
 10
6.916699
 20
0.581414
 10
6.393586
 20
0.174549
  0
LWPOLYLINE
  5
152
100
AcDbEntity
  8
0
  6
CONTINUOUS
 62
     7
100
AcDbPolyline
 90
        3
 70
     0
 10
6.509842
 20
0.116425
 10
6.567957
 20
0.116425
 10
6.800469
 20
0.174549
  0
LINE
  5
153
100
AcDbEntity
  8
0
  6
CONTINUOUS
 62
     7
100
AcDbLine
 10
6.509842
 20
6.858762
 30
0.0
 11
6.800469
 21
6.626276
 31
0.0
  0
LWPOLYLINE
  5
154
100
AcDbEntity
  8
0
  6
CONTINUOUS
 62
     7
100
AcDbPolyline
 90
        3
 70
     0
 10
7.497953
 20
0.290794
 10
7.614183
 20
0.34892
 10
7.84667
 20
0.407043
  0
LINE
  5
155
100
AcDbEntity
  8
0
  6
CONTINUOUS
 62
     7
100
AcDbLine
 10
7.497953
 20
6.161278
 30
0.0
 11
7.84667
 21
5.870651
 31
0.0
  0
LWPOLYLINE
  5
156
100
AcDbEntity
  8
0
  6
CONTINUOUS
 62
     7
100
AcDbPolyline
 90
        9
 70
     0
 10
7.730439
 20
1.860131
 10
7.788554
 20
1.685762
 10
7.84667
 20
1.511391
 10
7.90481
 20
1.33702
 10
7.962925
 20
1.162649
 10
8.021041
 20
1.046401
 10
8.079181
 20
0.87203
 10
8.195412
 20
0.697662
 10
8.253552
 20
0.523291
  0
LWPOLYLINE
  5
157
100
AcDbEntity
  8
0
  6
CONTINUOUS
 62
     7
100
AcDbPolyline
 90
       10
 70
     0
 10
7.730439
 20
3.661969
 10
7.788554
 20
3.894455
 10
7.84667
 20
4.126941
 10
7.90481
 20
4.359453
 10
7.962925
 20
4.591939
 10
8.021041
 20
4.824425
 10
8.021041
 20
4.882566
 10
8.079181
 20
5.115052
 10
8.195412
 20
5.347538
 10
8.253552
 20
5.638165
  0
LWPOLYLINE
  5
158
100
AcDbEntity
  8
0
  6
CONTINUOUS
 62
     7
100
AcDbPolyline
 90
        3
 70
     0
 10
8.021041
 20
1.046401
 10
8.021041
 20
0.988278
 10
8.079181
 20
0.87203
  0
LINE
  5
159
100
AcDbEntity
  8
0
  6
CONTINUOUS
 62
     7
100
AcDbLine
 10
8.021041
 20
4.824425
 30
0.0
 11
8.079181
 21
5.115052
 31
0.0
  0
LINE
  5
15A
100
AcDbEntity
  8
0
  6
CONTINUOUS
 62
     7
100
AcDbLine
 10
8.195412
 20
3.95257
 30
0.0
 11
9.764751
 21
3.080715
 31
0.0
  0
LWPOLYLINE
  5
15B
100
AcDbEntity
  8
0
  6
CONTINUOUS
 62
     7
100
AcDbPolyline
 90
       11
 70
     0
 10
8.253552
 20
11.683009
 10
8.486038
 20
11.915521
 10
9.299778
 20
12.089892
 10
10.287864
 20
11.74115
 10
11.275974
 20
10.92741
 10
12.089714
 20
9.823069
 10
12.670942
 20
8.486216
 10
12.845313
 20
7.265619
 10
12.670942
 20
6.219393
 10
12.089714
 20
5.58005
 10
11.682832
 20
5.521909
  0
LWPOLYLINE
  5
15C
100
AcDbEntity
  8
0
  6
CONTINUOUS
 62
     7
100
AcDbPolyline
 90
        9
 70
     0
 10
8.369783
 20
11.624894
 10
8.602294
 20
11.624894
 10
9.532264
 20
11.276152
 10
10.520375
 20
10.520553
 10
11.39223
 20
9.358071
 10
11.915343
 20
8.079359
 10
12.147829
 20
6.858762
 10
11.915343
 20
5.812536
 10
11.566601
 20
5.405679
  0
LWPOLYLINE
  5
15D
100
AcDbEntity
  8
0
  6
CONTINUOUS
 62
     7
100
AcDbPolyline
 90
       11
 70
     0
 10
8.892896
 20
12.031751
 10
9.183522
 20
12.380493
 10
10.055377
 20
12.496749
 10
11.043488
 20
12.148007
 10
12.031574
 20
11.334267
 10
12.845313
 20
10.229926
 10
13.426542
 20
8.951214
 10
13.600913
 20
7.672476
 10
13.426542
 20
6.684391
 10
12.845313
 20
6.045022
 10
12.438456
 20
5.986907
  0
LWPOLYLINE
  5
15E
100
AcDbEntity
  8
0
  6
CONTINUOUS
 62
     7
100
AcDbPolyline
 90
        4
 70
     0
 10
9.183522
 20
10.578668
 10
9.822891
 20
10.055555
 10
10.636606
 20
8.951214
 10
10.810977
 20
8.544331
  0
LWPOLYLINE
  5
15F
100
AcDbEntity
  8
0
  6
CONTINUOUS
 62
     7
100
AcDbPolyline
 90
       11
 70
     0
 10
9.64852
 20
12.438634
 10
9.939122
 20
12.787351
 10
10.810977
 20
12.961722
 10
11.740972
 20
12.613005
 10
12.729058
 20
11.799265
 10
13.600913
 20
10.636783
 10
14.124026
 20
9.358071
 10
14.356512
 20
8.137474
 10
14.124026
 20
7.091248
 10
13.600913
 20
6.451905
 10
13.135915
 20
6.393764
  0
LWPOLYLINE
  5
160
100
AcDbEntity
  8
0
  6
CONTINUOUS
 62
     7
100
AcDbPolyline
 90
       11
 70
     0
 10
10.346004
 20
12.845491
 10
10.694746
 20
13.194233
 10
11.508461
 20
13.368604
 10
12.496571
 20
13.019862
 10
13.484657
 20
12.206122
 10
14.298397
 20
11.101781
 10
14.879625
 20
9.823069
 10
15.053996
 20
8.544331
 10
14.879625
 20
7.556246
 10
14.298397
 20
6.916877
 10
13.891539
 20
6.800647
  0
LWPOLYLINE
  5
161
100
AcDbEntity
  8
0
  6
CONTINUOUS
 62
     7
100
AcDbPolyline
 90
       11
 70
     0
 10
11.101603
 20
13.310464
 10
11.39223
 20
13.659206
 10
12.264085
 20
13.775461
 10
13.252171
 20
13.426719
 10
14.240281
 20
12.67112
 10
15.053996
 20
11.508638
 10
15.635249
 20
10.229926
 10
15.80962
 20
9.009329
 10
15.635249
 20
7.963103
 10
15.053996
 20
7.32376
 10
14.647139
 20
7.265619
  0
LWPOLYLINE
  5
162
100
AcDbEntity
  8
0
  6
CONTINUOUS
 62
     7
100
AcDbPolyline
 90
       11
 70
     0
 10
11.857203
 20
13.717346
 10
12.147829
 20
14.066088
 10
12.961544
 20
14.240459
 10
13.949655
 20
13.891717
 10
14.937765
 20
13.077977
 10
15.80962
 20
11.973636
 10
16.332733
 20
10.636783
 10
16.56522
 20
9.416186
 10
16.332733
 20
8.36996
 10
15.80962
 20
7.730617
 10
15.344623
 20
7.672476
  0
LWPOLYLINE
  5
163
100
AcDbEntity
  8
0
  6
CONTINUOUS
 62
     7
100
AcDbPolyline
 90
       11
 70
     0
 10
12.554687
 20
14.124203
 10
12.903429
 20
14.472945
 10
13.717168
 20
14.647316
 10
14.705254
 20
14.298574
 10
15.693365
 20
13.484835
 10
16.507104
 20
12.380493
 10
17.088333
 20
11.101781
 10
17.262704
 20
9.823069
 10
17.088333
 20
8.834958
 10
16.507104
 20
8.195589
 10
16.100222
 20
8.079359
  0
LWPOLYLINE
  5
164
100
AcDbEntity
  8
0
  6
CONTINUOUS
 62
     7
100
AcDbPolyline
 90
       11
 70
     0
 10
13.310286
 20
14.589201
 10
13.600913
 20
14.937943
 10
14.472768
 20
15.054174
 10
15.460878
 20
14.705432
 10
16.448964
 20
13.949832
 10
17.262704
 20
12.787351
 10
17.843932
 20
11.508638
 10
18.018303
 20
10.288041
 10
17.843932
 20
9.241815
 10
17.262704
 20
8.602472
 10
16.855846
 20
8.544331
  0
LWPOLYLINE
  5
165
100
AcDbEntity
  8
0
  6
CONTINUOUS
 62
     7
100
AcDbPolyline
 90
       11
 70
     0
 10
14.06591
 20
14.996058
 10
14.356512
 20
15.3448
 10
15.170252
 20
15.519171
 10
16.158362
 20
15.170429
 10
17.146448
 20
14.35669
 10
18.018303
 20
13.252348
 10
18.541416
 20
11.973636
 10
18.773902
 20
10.694924
 10
18.541416
 20
9.648698
 10
18.018303
 20
9.067444
 10
17.55333
 20
8.951214
  0
LWPOLYLINE
  5
166
100
AcDbEntity
  8
0
  6
CONTINUOUS
 62
     7
100
AcDbPolyline
 90
       11
 70
     0
 10
14.763394
 20
15.461056
 10
15.112136
 20
15.809798
 10
15.925851
 20
15.926029
 10
16.913962
 20
15.577287
 10
17.902047
 20
14.763572
 10
18.715787
 20
13.659206
 10
19.297015
 20
12.380493
 10
19.471386
 20
11.101781
 10
19.297015
 20
10.11367
 10
18.715787
 20
9.474327
 10
18.30893
 20
9.416186
  0
LWPOLYLINE
  5
167
100
AcDbEntity
  8
0
  6
CONTINUOUS
 62
     7
100
AcDbPolyline
 90
       11
 70
     0
 10
15.518994
 20
15.867913
 10
15.80962
 20
16.216655
 10
16.681475
 20
16.391026
 10
17.669561
 20
16.042284
 10
18.657672
 20
15.228545
 10
19.471386
 20
14.066088
 10
20.05264
 20
12.787351
 10
20.227011
 20
11.566779
 10
20.05264
 20
10.520553
 10
19.471386
 20
9.881184
 10
19.064529
 20
9.823069
  0
LWPOLYLINE
  5
168
100
AcDbEntity
  8
0
  6
CONTINUOUS
 62
     7
100
AcDbPolyline
 90
       11
 70
     0
 10
16.274593
 20
16.274771
 10
16.56522
 20
16.623513
 10
17.378959
 20
16.797884
 10
18.367045
 20
16.449142
 10
19.355156
 20
15.635427
 10
20.227011
 20
14.531061
 10
20.750124
 20
13.252348
 10
20.98261
 20
11.973636
 10
20.750124
 20
10.985525
 10
20.227011
 20
10.346182
 10
19.762013
 20
10.229926
  0
LWPOLYLINE
  5
169
100
AcDbEntity
  8
0
  6
CONTINUOUS
 62
     7
100
AcDbPolyline
 90
       11
 70
     0
 10
16.972077
 20
16.739768
 10
17.320819
 20
17.08851
 10
18.134559
 20
17.204766
 10
19.122644
 20
16.856024
 10
20.110755
 20
16.1004
 10
20.924495
 20
14.937943
 10
21.505723
 20
13.659206
 10
21.680094
 20
12.438634
 10
21.505723
 20
11.392408
 10
20.924495
 20
10.753039
 10
20.517612
 20
10.694924
  0
LWPOLYLINE
  5
16A
100
AcDbEntity
  8
0
  6
CONTINUOUS
 62
     7
100
AcDbPolyline
 90
       11
 70
     0
 10
17.727701
 20
17.146626
 10
18.018303
 20
17.495368
 10
18.890158
 20
17.669739
 10
19.878269
 20
17.320997
 10
20.866354
 20
16.507282
 10
21.680094
 20
15.402916
 10
22.261322
 20
14.066088
 10
22.435693
 20
12.845491
 10
22.261322
 20
11.799265
 10
21.680094
 20
11.159896
 10
21.273237
 20
11.101781
  0
LWPOLYLINE
  5
16B
100
AcDbEntity
  8
0
  6
CONTINUOUS
 62
     7
100
AcDbPolyline
 90
       11
 70
     0
 10
18.483301
 20
17.553508
 10
18.773902
 20
17.902225
 10
19.587642
 20
18.076596
 10
20.575753
 20
17.727879
 10
21.563838
 20
16.914139
 10
22.435693
 20
15.809798
 10
22.958806
 20
14.531061
 10
23.191292
 20
13.252348
 10
22.958806
 20
12.264263
 10
22.435693
 20
11.624894
 10
21.970721
 20
11.508638
  0
LWPOLYLINE
  5
16C
100
AcDbEntity
  8
0
  6
CONTINUOUS
 62
     7
100
AcDbPolyline
 90
       11
 70
     0
 10
19.180785
 20
18.018481
 10
19.529527
 20
18.367223
 10
20.343241
 20
18.541594
 10
21.331352
 20
18.192852
 10
22.319463
 20
17.379137
 10
23.133177
 20
16.216655
 10
23.714405
 20
14.937943
 10
23.888776
 20
13.717346
 10
23.714405
 20
12.67112
 10
23.133177
 20
12.031751
 10
22.72632
 20
11.973636
  0
LWPOLYLINE
  5
16D
100
AcDbEntity
  8
0
  6
CONTINUOUS
 62
     7
100
AcDbPolyline
 90
       11
 70
     0
 10
19.936384
 20
18.425338
 10
20.227011
 20
18.77408
 10
21.098866
 20
18.948451
 10
22.086951
 20
18.599709
 10
23.075062
 20
17.785994
 10
23.888776
 20
16.681653
 10
24.47003
 20
15.402916
 10
24.644401
 20
14.124203
 10
24.47003
 20
13.136093
 10
23.888776
 20
12.496749
 10
23.481919
 20
12.380493
  0
LWPOLYLINE
  5
16E
100
AcDbEntity
  8
0
  6
CONTINUOUS
 62
     7
100
AcDbPolyline
 90
       11
 70
     0
 10
20.691983
 20
18.890336
 10
20.98261
 20
19.239078
 10
21.79635
 20
19.355333
 10
22.784435
 20
19.006591
 10
23.772546
 20
18.250967
 10
24.644401
 20
17.08851
 10
25.167514
 20
15.809798
 10
25.4
 20
14.531061
 10
25.167514
 20
13.542975
 10
24.644401
 20
12.903606
 10
24.179403
 20
12.845491
  0
ENDBLK
  5
16F
100
AcDbEntity
  8
0
100
AcDbBlockEnd
  0
BLOCK
  5
171
100
AcDbEntity
  8
0
100
AcDbBlockBegin
  2
\U+7A74\U+4ED8\U+304D\U+FF8E\U+FF9E\U+FF99\U+FF84
 70
     0
 10
0.0
 20
0.0
 30
0.0
  3
\U+7A74\U+4ED8\U+304D\U+FF8E\U+FF9E\U+FF99\U+FF84
  1

  0
LWPOLYLINE
  5
172
100
AcDbEntity
  8
0
  6
CONTINUOUS
 62
     7
100
AcDbPolyline
 90
       31
 70
     0
 10
0.0
 20
6.796405
 10
0.230385
 20
8.178698
 10
1.036734
 20
9.042654
 10
2.188662
 20
9.273032
 10
3.570986
 20
8.812276
 10
4.895698
 20
7.717942
 10
6.047613
 20
6.105246
 10
6.853961
 20
4.319753
 10
7.141947
 20
2.591867
 10
6.853961
 20
1.209548
 10
6.047613
 20
0.345603
 10
4.895698
 20
0.115218
 10
3.570986
 20
0.575988
 10
3.686175
 20
0.518394
 10
5.126076
 20
0.000025
 10
6.335598
 20
0.230411
 10
7.141947
 20
1.151954
 10
7.429932
 20
2.591867
 10
7.141947
 20
4.434942
 10
6.335598
 20
6.278042
 10
5.126076
 20
7.890739
 10
3.686175
 20
9.100261
 10
2.303854
 20
9.561017
 10
1.094331
 20
9.330639
 10
0.287983
 20
8.466684
 10
0.0
 20
6.969176
 10
0.0
 20
6.796405
 10
0.230385
 20
5.068494
 10
1.036734
 20
3.283026
 10
2.188662
 20
1.670319
 10
3.570986
 20
0.575988
  0
LWPOLYLINE
  5
173
100
AcDbEntity
  8
0
  6
CONTINUOUS
 62
     7
100
AcDbPolyline
 90
       11
 70
     0
 10
1.094331
 20
9.330639
 10
5.874842
 20
12.152859
 10
7.084365
 20
12.383237
 10
8.524265
 20
11.864873
 10
9.964166
 20
10.712958
 10
11.173689
 20
9.100261
 10
11.980037
 20
7.199579
 10
12.268022
 20
5.414086
 10
11.980037
 20
3.916578
 10
11.173689
 20
2.995041
 10
6.335598
 20
0.230411
  0
LWPOLYLINE
  5
174
100
AcDbEntity
  8
0
  6
CONTINUOUS
 62
     7
100
AcDbPolyline
 90
        3
 70
     0
 10
1.670294
 20
4.550131
 10
4.089349
 20
5.932449
 10
4.089349
 20
6.50842
  0
LINE
  5
175
100
AcDbEntity
  8
0
  6
CONTINUOUS
 62
     7
100
AcDbLine
 10
3.570986
 20
2.246285
 30
0.0
 11
5.414061
 21
3.283026
 31
0.0
  0
LINE
  5
176
100
AcDbEntity
  8
0
  6
CONTINUOUS
 62
     7
100
AcDbLine
 10
4.089349
 20
5.932449
 30
0.0
 11
5.414061
 21
4.262145
 31
0.0
  0
LWPOLYLINE
  5
177
100
AcDbEntity
  8
0
  6
CONTINUOUS
 62
     7
100
AcDbPolyline
 90
       19
 70
     0
 10
8.812251
 20
11.634495
 10
9.273007
 20
12.095251
 10
10.079355
 20
12.268048
 10
11.000918
 20
11.922481
 10
11.980037
 20
11.116132
 10
12.786385
 20
10.021799
 10
13.304774
 20
8.812276
 10
13.477545
 20
7.602753
 10
13.304774
 20
6.623609
 10
12.786385
 20
5.990057
 10
12.152833
 20
5.874868
 10
12.325629
 20
6.047638
 10
12.4984
 20
7.026783
 10
12.325629
 20
8.236306
 10
11.749659
 20
9.445828
 10
10.943311
 20
10.540162
 10
10.021773
 20
11.34651
 10
9.042629
 20
11.634495
 10
8.869832
 20
11.634495
  0
LWPOLYLINE
  5
178
100
AcDbEntity
  8
0
  6
CONTINUOUS
 62
     7
100
AcDbPolyline
 90
       11
 70
     0
 10
9.848977
 20
12.210466
 10
10.252151
 20
12.671222
 10
11.0585
 20
12.844018
 10
11.980037
 20
12.498426
 10
12.959182
 20
11.692077
 10
13.76553
 20
10.597769
 10
14.283893
 20
9.388246
 10
14.456689
 20
8.178698
 10
14.283893
 20
7.199579
 10
13.76553
 20
6.566002
 10
13.18956
 20
6.450813
  0
LWPOLYLINE
  5
179
100
AcDbEntity
  8
0
  6
CONTINUOUS
 62
     7
100
AcDbPolyline
 90
       11
 70
     0
 10
10.828122
 20
12.786411
 10
11.231296
 20
13.247192
 10
12.037644
 20
13.419988
 10
13.016789
 20
13.074396
 10
13.938326
 20
12.268048
 10
14.744675
 20
11.173714
 10
15.263038
 20
9.964191
 10
15.493416
 20
8.754669
 10
15.263038
 20
7.775524
 10
14.744675
 20
7.141972
 10
14.168704
 20
7.026783
  0
LWPOLYLINE
  5
17A
100
AcDbEntity
  8
0
  6
CONTINUOUS
 62
     7
100
AcDbPolyline
 90
       11
 70
     0
 10
11.807266
 20
13.362381
 10
12.21044
 20
13.823163
 10
13.016789
 20
13.995933
 10
13.995908
 20
13.650366
 10
14.917471
 20
12.844018
 10
15.723819
 20
11.807292
 10
16.299764
 20
10.540162
 10
16.47256
 20
9.330639
 10
16.299764
 20
8.351495
 10
15.723819
 20
7.717942
 10
15.147849
 20
7.602753
  0
LWPOLYLINE
  5
17B
100
AcDbEntity
  8
0
  6
CONTINUOUS
 62
     7
100
AcDbPolyline
 90
       11
 70
     0
 10
12.786385
 20
13.938352
 10
13.247167
 20
14.399108
 10
14.053515
 20
14.571904
 10
14.975053
 20
14.226337
 10
15.954197
 20
13.47757
 10
16.760546
 20
12.383237
 10
17.278909
 20
11.116132
 10
17.451705
 20
9.90661
 10
17.278909
 20
8.927465
 10
16.760546
 20
8.293913
 10
16.184575
 20
8.178698
  0
LWPOLYLINE
  5
17C
100
AcDbEntity
  8
0
  6
CONTINUOUS
 62
     7
100
AcDbPolyline
 90
       11
 70
     0
 10
13.823137
 20
14.514322
 10
14.226311
 20
14.975078
 10
15.03266
 20
15.147874
 10
15.954197
 20
14.802282
 10
16.933342
 20
14.053541
 10
17.73969
 20
12.959207
 10
18.258053
 20
11.692077
 10
18.488431
 20
10.482555
 10
18.258053
 20
9.503435
 10
17.73969
 20
8.869858
 10
17.16372
 20
8.812276
  0
LWPOLYLINE
  5
17D
100
AcDbEntity
  8
0
  6
CONTINUOUS
 62
     7
100
AcDbPolyline
 90
       11
 70
     0
 10
14.802256
 20
15.090267
 10
15.205431
 20
15.551048
 10
16.011779
 20
15.723845
 10
16.990924
 20
15.378252
 10
17.912461
 20
14.629511
 10
18.718809
 20
13.535177
 10
19.29478
 20
12.268048
 10
19.467576
 20
11.058525
 10
19.29478
 20
10.07938
 10
18.718809
 20
9.445828
 10
18.142864
 20
9.388246
  0
LWPOLYLINE
  5
17E
100
AcDbEntity
  8
0
  6
CONTINUOUS
 62
     7
100
AcDbPolyline
 90
       11
 70
     0
 10
15.781401
 20
15.666237
 10
16.184575
 20
16.127019
 10
16.990924
 20
16.29979
 10
17.970068
 20
15.954223
 10
18.891606
 20
15.205456
 10
19.697954
 20
14.111148
 10
20.273924
 20
12.844018
 10
20.446721
 20
11.634495
 10
20.273924
 20
10.655351
 10
19.697954
 20
10.07938
 10
19.121984
 20
9.964191
  0
LWPOLYLINE
  5
17F
100
AcDbEntity
  8
0
  6
CONTINUOUS
 62
     7
100
AcDbPolyline
 90
       11
 70
     0
 10
16.760546
 20
16.242208
 10
17.221327
 20
16.702964
 10
18.027675
 20
16.87576
 10
18.949213
 20
16.530193
 10
19.928332
 20
15.781426
 10
20.734706
 20
14.687093
 10
21.253069
 20
13.419988
 10
21.42584
 20
12.210466
 10
21.253069
 20
11.231321
 10
20.734706
 20
10.655351
 10
20.158735
 20
10.540162
  0
LWPOLYLINE
  5
180
100
AcDbEntity
  8
0
  6
CONTINUOUS
 62
     7
100
AcDbPolyline
 90
       11
 70
     0
 10
17.797272
 20
16.818178
 10
18.200446
 20
17.278934
 10
19.006795
 20
17.45173
 10
19.928332
 20
17.106138
 10
20.907477
 20
16.357397
 10
21.713825
 20
15.263063
 10
22.232188
 20
13.995933
 10
22.462592
 20
12.786411
 10
22.232188
 20
11.807292
 10
21.713825
 20
11.231321
 10
21.13788
 20
11.116132
  0
LWPOLYLINE
  5
181
100
AcDbEntity
  8
0
  6
CONTINUOUS
 62
     7
100
AcDbPolyline
 90
       11
 70
     0
 10
18.776417
 20
17.394123
 10
19.179591
 20
17.912486
 10
19.985939
 20
18.027701
 10
20.965084
 20
17.682108
 10
21.886621
 20
16.933367
 10
22.69297
 20
15.839034
 10
23.26894
 20
14.571904
 10
23.441711
 20
13.362381
 10
23.26894
 20
12.383237
 10
22.69297
 20
11.807292
 10
22.116999
 20
11.692077
  0
LWPOLYLINE
  5
182
100
AcDbEntity
  8
0
  6
CONTINUOUS
 62
     7
100
AcDbPolyline
 90
       11
 70
     0
 10
19.755561
 20
17.970094
 10
20.158735
 20
18.488457
 10
20.965084
 20
18.603646
 10
21.944228
 20
18.258079
 10
22.865766
 20
17.509312
 10
23.672114
 20
16.415004
 10
24.248085
 20
15.147874
 10
24.420855
 20
13.995933
 10
24.248085
 20
12.959207
 10
23.672114
 20
12.383237
 10
23.096144
 20
12.268048
  0
LWPOLYLINE
  5
183
100
AcDbEntity
  8
0
  6
CONTINUOUS
 62
     7
100
AcDbPolyline
 90
       11
 70
     0
 10
20.792288
 20
18.546064
 10
21.195462
 20
19.064427
 10
22.00181
 20
19.179616
 10
22.923348
 20
18.834049
 10
23.902492
 20
18.085283
 10
24.708841
 20
16.990949
 10
25.227204
 20
15.781426
 10
25.4
 20
14.571904
 10
25.227204
 20
13.592759
 10
24.708841
 20
12.959207
 10
24.13287
 20
12.844018
  0
LWPOLYLINE
  5
184
100
AcDbEntity
  8
0
  6
CONTINUOUS
 62
     7
100
AcDbPolyline
 90
        6
 70
     1
 10
1.670294
 20
4.550131
 10
3.570986
 20
2.246285
 10
5.414061
 20
2.361476
 10
5.414061
 20
4.838116
 10
3.570986
 20
7.199579
 10
1.670294
 20
7.026783
  0
ENDBLK
  5
185
100
AcDbEntity
  8
0
100
AcDbBlockEnd
  0
ENDSEC
  0
SECTION
  2
ENTITIES
  0
LWPOLYLINE
  5
33
102
{ACAD_REACTORS
330
31
102
}
100
AcDbEntity
  8
\U+5BF8\U+6CD5
  6
CONTINUOUS
100
AcDbPolyline
 90
        2
 70
     1
 10
81.957337
 20
209.969663
 10
81.957337
 20
183.205774
  0
LWPOLYLINE
  5
34
102
{ACAD_REACTORS
330
31
102
}
100
AcDbEntity
  8
\U+5BF8\U+6CD5
  6
CONTINUOUS
100
AcDbPolyline
 90
        2
 70
     1
 10
176.957337
 20
209.969663
 10
176.957337
 20
182.905774
  0
LINE
  5
35
102
{ACAD_REACTORS
330
31
102
}
100
AcDbEntity
  8
\U+5BF8\U+6CD5
  6
CONTINUOUS
100
AcDbLine
 10
129.457337
 20
206.441885
 30
0.0
 11
81.957337
 21
206.441885
 31
0.0
  0
LINE
  5
36
102
{ACAD_REACTORS
330
31
102
}
100
AcDbEntity
  8
\U+5BF8\U+6CD5
  6
CONTINUOUS
100
AcDbLine
 10
129.457337
 20
206.441885
 30
0.0
 11
176.957337
 21
206.441885
 31
0.0
  0
MTEXT
  5
38
100
AcDbEntity
  8
\U+5BF8\U+6CD5
100
AcDbMText
 10
129.457337
 20
209.441137
 30
0.0
 40
3.031693
 41
10.849445
 71
     5
 72
     5
  1
\C7;\fＭＳ ゴシック|b0|i0|;\H3.0316932797432;95.00
  7
HORIZONTALBIGFONT
  0
LWPOLYLINE
  5
3A
102
{ACAD_REACTORS
330
39
102
}
100
AcDbEntity
  8
\U+5BF8\U+6CD5
  6
CONTINUOUS
100
AcDbPolyline
 90
        2
 70
     1
 10
23.42956
 20
103.641885
 10
40.193448
 20
103.641885
  0
LWPOLYLINE
  5
3B
102
{ACAD_REACTORS
330
39
102
}
100
AcDbEntity
  8
\U+5BF8\U+6CD5
  6
CONTINUOUS
100
AcDbPolyline
 90
        2
 70
     1
 10
23.42956
 20
193.641885
 10
40.193448
 20
193.641885
  0
LINE
  5
3C
102
{ACAD_REACTORS
330
39
102
}
100
AcDbEntity
  8
\U+5BF8\U+6CD5
  6
CONTINUOUS
100
AcDbLine
 10
26.957337
 20
148.641885
 30
0.0
 11
26.957337
 21
103.641885
 31
0.0
  0
LINE
  5
3D
102
{ACAD_REACTORS
330
39
102
}
100
AcDbEntity
  8
\U+5BF8\U+6CD5
  6
CONTINUOUS
100
AcDbLine
 10
26.957337
 20
148.641885
 30
0.0
 11
26.957337
 21
193.641885
 31
0.0
  0
MTEXT
  5
3E
100
AcDbEntity
  8
\U+5BF8\U+6CD5
100
AcDbMText
 10
23.958085
 20
148.641885
 30
0.0
 40
3.031693
 41
10.849445
 71
     5
 72
     5
  1
\C7;\fＭＳ ゴシック|b0|i0|;\H3.0316932797432;89.00
  7
HORIZONTALBIGFONT
 11
0.0
 21
1.0
 31
0.0
  0
LWPOLYLINE
  5
40
102
{ACAD_REACTORS
330
3F
102
}
100
AcDbEntity
  8
\U+5BF8\U+6CD5
  6
CONTINUOUS
100
AcDbPolyline
 90
        2
 70
     1
 10
58.42956
 20
213.641885
 10
80.193448
 20
213.641885
  0
LWPOLYLINE
  5
41
102
{ACAD_REACTORS
330
3F
102
}
100
AcDbEntity
  8
\U+5BF8\U+6CD5
  6
CONTINUOUS
100
AcDbPolyline
 90
        2
 70
     1
 10
58.42956
 20
230.041885
 10
80.193448
 20
230.041885
  0
LINE
  5
42
102
{ACAD_REACTORS
330
3F
102
}
100
AcDbEntity
  8
\U+5BF8\U+6CD5
  6
CONTINUOUS
100
AcDbLine
 10
61.957337
 20
221.841885
 30
0.0
 11
61.957337
 21
213.641885
 31
0.0
  0
LINE
  5
43
102
{ACAD_REACTORS
330
3F
102
}
100
AcDbEntity
  8
\U+5BF8\U+6CD5
  6
CONTINUOUS
100
AcDbLine
 10
61.957337
 20
221.841885
 30
0.0
 11
61.957337
 21
230.041885
 31
0.0
  0
MTEXT
  5
44
100
AcDbEntity
  8
\U+5BF8\U+6CD5
100
AcDbMText
 10
58.958085
 20
221.841885
 30
0.0
 40
3.031693
 41
10.849445
 71
     5
 72
     5
  1
\C7;\fＭＳ ゴシック|b0|i0|;\H3.0316932797432;15.80
  7
HORIZONTALBIGFONT
 11
0.0
 21
1.0
 31
0.0
  0
MTEXT
  5
45
100
AcDbEntity
  8
\U+5BF8\U+6CD5
100
AcDbMText
 10
130.868448
 20
58.641885
 30
0.0
 40
3.638049
 41
45.0
 71
     4
 72
     5
  1
\C7;\fＭＳ Ｐゴシック|b0|i0|;\H3.6380485892296;\M+194F1\M+18AEB\M+18CAF\M+18FEA\M+18F8A\M+191A4\M+1925B\M+18E71\M+191E4
  7
HORIZONTALBIGFONT
  0
MTEXT
  5
46
100
AcDbEntity
  8
\U+5BF8\U+6CD5
100
AcDbMText
 10
98.368448
 20
233.641885
 30
0.0
 40
3.638049
 41
33.8
 71
     4
 72
     5
  1
\C7;\fＭＳ Ｐゴシック|b0|i0|;\H3.6380485892296;\M+18AEB\M+18CAF\M+18FEA\M+18F8A\M+1925B\M+18E71\M+191E4
  7
HORIZONTALBIGFONT
  0
LWPOLYLINE
  5
47
100
AcDbEntity
  8
0
  6
CONTINUOUS
 62
     7
100
AcDbPolyline
 90
        4
 70
     1
 10
174.457337
 20
103.641885
 10
181.457337
 20
103.641885
 10
181.457337
 20
110.641885
 10
174.457337
 20
110.641885
  0
LWPOLYLINE
  5
48
100
AcDbEntity
  8
0
  6
CONTINUOUS
 62
     7
100
AcDbPolyline
 90
        3
 70
     0
 10
173.457337
 20
118.641885
 10
181.457337
 20
118.641885
 10
181.457337
 20
110.641885
  0
LINE
  5
49
100
AcDbEntity
  8
0
  6
CONTINUOUS
 62
     7
100
AcDbLine
 10
174.457337
 20
103.641885
 30
0.0
 11
77.557337
 21
103.641885
 31
0.0
  0
LWPOLYLINE
  5
4A
100
AcDbEntity
  8
0
  6
CONTINUOUS
 62
     7
100
AcDbPolyline
 90
        4
 70
     1
 10
77.457337
 20
103.641885
 10
84.457337
 20
103.641885
 10
84.457337
 20
110.641885
 10
77.457337
 20
110.641885
  0
LWPOLYLINE
  5
4B
100
AcDbEntity
  8
0
  6
CONTINUOUS
 62
     7
100
AcDbPolyline
 90
        3
 70
     0
 10
77.557337
 20
110.641885
 10
77.557337
 20
118.641885
 10
85.407337
 20
118.641885
  0
LINE
  5
4C
100
AcDbEntity
  8
0
  6
CONTINUOUS
 62
     7
100
AcDbLine
 10
85.557337
 20
183.641885
 30
0.0
 11
81.957337
 21
181.141885
 31
0.0
  0
LWPOLYLINE
  5
4D
100
AcDbEntity
  8
0
  6
CONTINUOUS
 62
     7
100
AcDbPolyline
 90
        3
 70
     0
 10
81.957337
 20
181.041885
 10
81.957337
 20
119.641885
 10
82.957337
 20
118.641885
  0
LWPOLYLINE
  5
4E
100
AcDbEntity
  8
0
  6
CONTINUOUS
 62
     7
100
AcDbPolyline
 90
        3
 70
     0
 10
176.957337
 20
181.141885
 10
176.957337
 20
119.641885
 10
175.957337
 20
118.641885
  0
LINE
  5
4F
100
AcDbEntity
  8
0
  6
CONTINUOUS
 62
     7
100
AcDbLine
 10
173.407337
 20
183.641885
 30
0.0
 11
176.957337
 21
181.141885
 31
0.0
  0
LINE
  5
50
100
AcDbEntity
  8
0
  6
CONTINUOUS
 62
     7
100
AcDbLine
 10
173.407337
 20
193.641885
 30
0.0
 11
173.407337
 21
183.641885
 31
0.0
  0
LWPOLYLINE
  5
51
100
AcDbEntity
  8
0
  6
CONTINUOUS
 62
     7
100
AcDbPolyline
 90
        3
 70
     0
 10
173.407337
 20
193.641885
 10
85.457337
 20
193.641885
 10
85.457337
 20
183.641885
  0
LWPOLYLINE
  5
52
100
AcDbEntity
  8
0
  6
CONTINUOUS
 62
     7
100
AcDbPolyline
 90
        6
 70
     0
 10
173.457337
 20
181.141885
 10
172.207337
 20
181.141885
 42
0.414214
 10
170.957337
 20
179.891885
 10
170.957337
 20
178.891885
 42
0.414214
 10
172.207337
 20
177.641885
 10
173.457337
 20
177.641885
  0
LWPOLYLINE
  5
53
100
AcDbEntity
  8
0
  6
CONTINUOUS
 62
     7
100
AcDbPolyline
 90
        6
 70
     0
 10
173.457337
 20
173.641885
 10
172.207337
 20
173.641885
 42
0.414214
 10
170.957337
 20
172.391885
 10
170.957337
 20
171.491885
 42
0.414214
 10
172.207337
 20
170.241885
 10
173.457337
 20
170.241885
  0
LWPOLYLINE
  5
54
100
AcDbEntity
  8
0
  6
CONTINUOUS
 62
     7
100
AcDbPolyline
 90
        6
 70
     0
 10
173.407337
 20
166.141885
 10
172.182337
 20
166.141885
 42
0.414214
 10
170.957337
 20
164.916885
 10
170.957337
 20
163.541885
 42
0.414214
 10
172.257337
 20
162.241885
 10
173.557337
 20
162.241885
  0
LWPOLYLINE
  5
55
100
AcDbEntity
  8
0
  6
CONTINUOUS
 62
     7
100
AcDbPolyline
 90
        6
 70
     0
 10
173.457337
 20
158.641885
 10
172.207337
 20
158.641885
 42
0.414214
 10
170.957337
 20
157.391885
 10
170.957337
 20
156.291885
 42
0.414214
 10
172.207337
 20
155.041885
 10
173.457337
 20
155.041885
  0
LWPOLYLINE
  5
56
100
AcDbEntity
  8
0
  6
CONTINUOUS
 62
     7
100
AcDbPolyline
 90
        6
 70
     0
 10
173.457337
 20
151.041885
 10
172.207337
 20
151.041885
 42
0.414214
 10
170.957337
 20
149.791885
 10
170.957337
 20
148.891885
 42
0.414214
 10
172.207337
 20
147.641885
 10
173.457337
 20
147.641885
  0
LWPOLYLINE
  5
57
100
AcDbEntity
  8
0
  6
CONTINUOUS
 62
     7
100
AcDbPolyline
 90
        6
 70
     0
 10
173.457337
 20
143.641885
 10
172.207337
 20
143.641885
 42
0.414214
 10
170.957337
 20
142.391885
 10
170.957337
 20
141.291885
 42
0.414214
 10
172.207337
 20
140.041885
 10
173.457337
 20
140.041885
  0
LWPOLYLINE
  5
58
100
AcDbEntity
  8
0
  6
CONTINUOUS
 62
     7
100
AcDbPolyline
 90
        6
 70
     0
 10
173.457337
 20
136.041885
 10
172.207337
 20
136.041885
 42
0.414214
 10
170.957337
 20
134.791885
 10
170.957337
 20
133.891885
 42
0.414214
 10
172.207337
 20
132.641885
 10
173.457337
 20
132.641885
  0
LWPOLYLINE
  5
59
100
AcDbEntity
  8
0
  6
CONTINUOUS
 62
     7
100
AcDbPolyline
 90
        6
 70
     0
 10
173.407337
 20
128.641885
 10
172.182337
 20
128.641885
 42
0.414214
 10
170.957337
 20
127.416885
 10
170.957337
 20
125.891885
 42
0.414214
 10
172.207337
 20
124.641885
 10
173.457337
 20
124.641885
  0
LWPOLYLINE
  5
5A
100
AcDbEntity
  8
0
  6
CONTINUOUS
 62
     7
100
AcDbPolyline
 90
        6
 70
     0
 10
85.707337
 20
173.441885
 10
86.957337
 20
173.441885
 42
-0.414214
 10
88.207337
 20
172.191885
 10
88.207337
 20
171.091885
 42
-0.414214
 10
86.957337
 20
169.841885
 10
85.707337
 20
169.841885
  0
LWPOLYLINE
  5
5B
100
AcDbEntity
  8
0
  6
CONTINUOUS
 62
     7
100
AcDbPolyline
 90
        6
 70
     0
 10
85.457337
 20
181.241885
 10
86.707337
 20
181.241885
 42
-0.414214
 10
87.957337
 20
179.991885
 10
87.957337
 20
178.891885
 42
-0.414214
 10
86.707337
 20
177.641885
 10
85.457337
 20
177.641885
  0
LWPOLYLINE
  5
5C
100
AcDbEntity
  8
0
  6
CONTINUOUS
 62
     7
100
AcDbPolyline
 90
        6
 70
     0
 10
85.707337
 20
166.241885
 10
86.957337
 20
166.241885
 42
-0.414214
 10
88.207337
 20
164.991885
 10
88.207337
 20
163.891885
 42
-0.414214
 10
86.957337
 20
162.641885
 10
85.707337
 20
162.641885
  0
LWPOLYLINE
  5
5D
100
AcDbEntity
  8
0
  6
CONTINUOUS
 62
     7
100
AcDbPolyline
 90
        6
 70
     0
 10
85.707337
 20
158.641885
 10
86.957337
 20
158.641885
 42
-0.414214
 10
88.207337
 20
157.391885
 10
88.207337
 20
156.291885
 42
-0.414214
 10
86.957337
 20
155.041885
 10
85.707337
 20
155.041885
  0
LWPOLYLINE
  5
5E
100
AcDbEntity
  8
0
  6
CONTINUOUS
 62
     7
100
AcDbPolyline
 90
        6
 70
     0
 10
85.457337
 20
151.241885
 10
86.707337
 20
151.241885
 42
-0.414214
 10
87.957337
 20
149.991885
 10
87.957337
 20
148.891885
 42
-0.414214
 10
86.707337
 20
147.641885
 10
85.457337
 20
147.641885
  0
LWPOLYLINE
  5
5F
100
AcDbEntity
  8
0
  6
CONTINUOUS
 62
     7
100
AcDbPolyline
 90
        6
 70
     0
 10
85.457337
 20
143.641885
 10
86.707337
 20
143.641885
 42
-0.414214
 10
87.957337
 20
142.391885
 10
87.957337
 20
141.291885
 42
-0.414214
 10
86.707337
 20
140.041885
 10
85.457337
 20
140.041885
  0
LWPOLYLINE
  5
60
100
AcDbEntity
  8
0
  6
CONTINUOUS
 62
     7
100
AcDbPolyline
 90
        6
 70
     0
 10
85.457337
 20
136.241885
 10
86.707337
 20
136.241885
 42
-0.414214
 10
87.957337
 20
134.991885
 10
87.957337
 20
133.891885
 42
-0.414214
 10
86.707337
 20
132.641885
 10
85.457337
 20
132.641885
  0
LWPOLYLINE
  5
61
100
AcDbEntity
  8
0
  6
CONTINUOUS
 62
     7
100
AcDbPolyline
 90
        6
 70
     0
 10
85.457337
 20
128.441885
 10
86.707337
 20
128.441885
 42
-0.414214
 10
87.957337
 20
127.191885
 10
87.957337
 20
126.091885
 42
-0.414214
 10
86.707337
 20
124.841885
 10
85.457337
 20
124.841885
  0
LINE
  5
62
100
AcDbEntity
  8
0
  6
CONTINUOUS
 62
     7
100
AcDbLine
 10
85.457337
 20
183.641885
 30
0.0
 11
85.457337
 21
181.241885
 31
0.0
  0
LINE
  5
63
100
AcDbEntity
  8
0
  6
CONTINUOUS
 62
     7
100
AcDbLine
 10
85.407337
 20
181.141885
 30
0.0
 11
85.457337
 21
118.641885
 31
0.0
  0
LINE
  5
64
100
AcDbEntity
  8
0
  6
CONTINUOUS
 62
     7
100
AcDbLine
 10
173.407337
 20
183.641885
 30
0.0
 11
173.457337
 21
118.641885
 31
0.0
  0
LINE
  5
66
102
{ACAD_REACTORS
330
65
102
}
100
AcDbEntity
  8
0
  6
CONTINUOUS
 62
     7
100
AcDbLine
 10
82.957337
 20
99.219085
 30
0.0
 11
80.957337
 21
99.219085
 31
0.0
  0
LINE
  5
67
102
{ACAD_REACTORS
330
65
102
}
100
AcDbEntity
  8
0
  6
CONTINUOUS
 62
     7
100
AcDbLine
 10
82.957337
 20
103.599552
 30
0.0
 11
82.957337
 21
99.219085
 31
0.0
  0
LINE
  5
68
102
{ACAD_REACTORS
330
65
102
}
100
AcDbEntity
  8
0
  6
CONTINUOUS
 62
     7
100
AcDbLine
 10
82.957337
 20
99.219085
 30
0.0
 11
81.957337
 21
98.641885
 31
0.0
  0
LINE
  5
69
102
{ACAD_REACTORS
330
65
102
}
100
AcDbEntity
  8
0
  6
CONTINUOUS
 62
     7
100
AcDbLine
 10
81.957337
 20
98.641885
 30
0.0
 11
80.957337
 21
99.219085
 31
0.0
  0
LINE
  5
6A
102
{ACAD_REACTORS
330
65
102
}
100
AcDbEntity
  8
0
  6
CONTINUOUS
 62
     7
100
AcDbLine
 10
80.957337
 20
99.219085
 30
0.0
 11
80.957337
 21
103.599552
 31
0.0
  0
LWPOLYLINE
  5
6B
102
{ACAD_REACTORS
330
65
102
}
100
AcDbEntity
  8
0
  6
CONTINUOUS
 62
     7
100
AcDbPolyline
 90
        8
 70
     0
 10
83.207337
 20
103.630861
 10
83.207337
 20
99.641885
 10
82.957337
 20
98.992366
 10
82.957337
 20
99.641885
 10
80.957337
 20
99.641885
 10
80.957337
 20
98.992366
 10
80.707337
 20
99.641885
 10
80.707337
 20
103.630861
  0
LINE
  5
6C
102
{ACAD_REACTORS
330
65
102
}
100
AcDbEntity
  8
0
  6
CONTINUOUS
 62
     7
100
AcDbLine
 10
83.207337
 20
99.641885
 30
0.0
 11
80.707337
 21
99.641885
 31
0.0
  0
LINE
  5
6E
102
{ACAD_REACTORS
330
6D
102
}
100
AcDbEntity
  8
0
  6
CONTINUOUS
 62
     7
100
AcDbLine
 10
177.957337
 20
99.219085
 30
0.0
 11
175.957337
 21
99.219085
 31
0.0
  0
LINE
  5
6F
102
{ACAD_REACTORS
330
6D
102
}
100
AcDbEntity
  8
0
  6
CONTINUOUS
 62
     7
100
AcDbLine
 10
177.957337
 20
103.599552
 30
0.0
 11
177.957337
 21
99.219085
 31
0.0
  0
LINE
  5
70
102
{ACAD_REACTORS
330
6D
102
}
100
AcDbEntity
  8
0
  6
CONTINUOUS
 62
     7
100
AcDbLine
 10
177.957337
 20
99.219085
 30
0.0
 11
176.957337
 21
98.641885
 31
0.0
  0
LINE
  5
71
102
{ACAD_REACTORS
330
6D
102
}
100
AcDbEntity
  8
0
  6
CONTINUOUS
 62
     7
100
AcDbLine
 10
176.957337
 20
98.641885
 30
0.0
 11
175.957337
 21
99.219085
 31
0.0
  0
LINE
  5
72
102
{ACAD_REACTORS
330
6D
102
}
100
AcDbEntity
  8
0
  6
CONTINUOUS
 62
     7
100
AcDbLine
 10
175.957337
 20
99.219085
 30
0.0
 11
175.957337
 21
103.599552
 31
0.0
  0
LWPOLYLINE
  5
73
102
{ACAD_REACTORS
330
6D
102
}
100
AcDbEntity
  8
0
  6
CONTINUOUS
 62
     7
100
AcDbPolyline
 90
        8
 70
     0
 10
178.207337
 20
103.630861
 10
178.207337
 20
99.641885
 10
177.957337
 20
98.992366
 10
177.957337
 20
99.641885
 10
175.957337
 20
99.641885
 10
175.957337
 20
98.992366
 10
175.707337
 20
99.641885
 10
175.707337
 20
103.630861
  0
LINE
  5
74
102
{ACAD_REACTORS
330
6D
102
}
100
AcDbEntity
  8
0
  6
CONTINUOUS
 62
     7
100
AcDbLine
 10
178.207337
 20
99.641885
 30
0.0
 11
175.707337
 21
99.641885
 31
0.0
  0
LWPOLYLINE
  5
75
100
AcDbEntity
  8
0
  6
CONTINUOUS
 62
     7
100
AcDbPolyline
 90
        4
 70
     1
 10
90.457337
 20
108.641885
 10
168.457337
 20
108.641885
 10
168.457337
 20
188.641885
 10
90.457337
 20
188.641885
  0
LWPOLYLINE
  5
76
102
{ACAD_REACTORS
330
77
102
}
100
AcDbEntity
  8
0
  6
CONTINUOUS
 62
     7
100
AcDbPolyline
 90
        4
 70
     1
 10
121.957337
 20
110.641885
 10
129.957337
 20
110.641885
 10
129.957337
 20
115.141885
 10
121.957337
 20
115.141885
  0
HATCH
  5
77
100
AcDbEntity
  8
0
 62
     7
100
AcDbHatch
 10
0.0
 20
0.0
 30
0.0
210
0.0
220
0.0
230
1.0
  2
SOLID
 70
     1
 71
     1
 91
        1
 92
        3
 72
     0
 73
     1
 93
        4
 10
121.95733734182835
 20
110.64188486639384
 10
129.95733734182838
 20
110.64188486639384
 10
129.95733734182838
 20
115.14188486639385
 10
121.95733734182835
 20
115.14188486639385
 97
       15
330
33
330
34
330
3A
330
3B
330
40
330
41
330
67
330
68
330
69
330
6A
330
6F
330
70
330
71
330
72
330
76
 75
     0
 76
     1
 98
        0
  0
LWPOLYLINE
  5
78
102
{ACAD_REACTORS
330
79
102
}
100
AcDbEntity
  8
0
  6
CONTINUOUS
 62
     7
100
AcDbPolyline
 90
        4
 70
     1
 10
129.957337
 20
110.641885
 10
130.407337
 20
110.641885
 10
130.407337
 20
111.641885
 10
129.957337
 20
111.641885
  0
HATCH
  5
79
100
AcDbEntity
  8
0
 62
     7
100
AcDbHatch
 10
0.0
 20
0.0
 30
0.0
210
0.0
220
0.0
230
1.0
  2
SOLID
 70
     1
 71
     1
 91
        1
 92
        3
 72
     0
 73
     1
 93
        4
 10
129.95733734182835
 20
110.64188486639381
 10
130.40733734182834
 20
110.64188486639381
 10
130.40733734182834
 20
111.64188486639385
 10
129.95733734182835
 20
111.64188486639385
 97
        1
330
78
 75
     0
 76
     1
 98
        0
  0
LWPOLYLINE
  5
7A
100
AcDbEntity
  8
0
  6
CONTINUOUS
 62
     7
100
AcDbPolyline
 90
        4
 70
     1
 10
127.957337
 20
110.241885
 10
128.957337
 20
110.241885
 10
128.957337
 20
114.141885
 10
127.957337
 20
114.141885
  0
LWPOLYLINE
  5
7B
100
AcDbEntity
  8
0
  6
CONTINUOUS
 62
     7
100
AcDbPolyline
 90
        4
 70
     1
 10
125.957337
 20
109.641885
 10
126.957337
 20
109.641885
 10
126.957337
 20
114.141885
 10
125.957337
 20
114.141885
  0
LWPOLYLINE
  5
7C
100
AcDbEntity
  8
0
  6
CONTINUOUS
 62
     7
100
AcDbPolyline
 90
        4
 70
     1
 10
124.407337
 20
110.141885
 10
124.957337
 20
110.141885
 10
124.957337
 20
111.641885
 10
124.407337
 20
111.641885
  0
LWPOLYLINE
  5
7D
100
AcDbEntity
  8
0
  6
CONTINUOUS
 62
     7
100
AcDbPolyline
 90
        4
 70
     1
 10
122.957337
 20
110.141885
 10
123.557337
 20
110.141885
 10
123.557337
 20
111.641885
 10
122.957337
 20
111.641885
  0
LWPOLYLINE
  5
7F
102
{ACAD_REACTORS
330
7E
102
}
100
AcDbEntity
  8
\U+5BF8\U+6CD5
  6
CONTINUOUS
100
AcDbPolyline
 90
        2
 70
     1
 10
85.157337
 20
202.469663
 10
85.157337
 20
195.405774
  0
LWPOLYLINE
  5
80
102
{ACAD_REACTORS
330
7E
102
}
100
AcDbEntity
  8
\U+5BF8\U+6CD5
  6
CONTINUOUS
100
AcDbPolyline
 90
        2
 70
     1
 10
173.457337
 20
202.469663
 10
173.457337
 20
195.405774
  0
LINE
  5
81
102
{ACAD_REACTORS
330
7E
102
}
100
AcDbEntity
  8
\U+5BF8\U+6CD5
  6
CONTINUOUS
100
AcDbLine
 10
129.307337
 20
198.941885
 30
0.0
 11
85.157337
 21
198.941885
 31
0.0
  0
LINE
  5
82
102
{ACAD_REACTORS
330
7E
102
}
100
AcDbEntity
  8
\U+5BF8\U+6CD5
  6
CONTINUOUS
100
AcDbLine
 10
129.307337
 20
198.941885
 30
0.0
 11
173.457337
 21
198.941885
 31
0.0
  0
MTEXT
  5
83
100
AcDbEntity
  8
\U+5BF8\U+6CD5
100
AcDbMText
 10
129.307337
 20
201.941138
 30
0.0
 40
3.031693
 41
10.849445
 71
     5
 72
     5
  1
\C7;\fＭＳ ゴシック|b0|i0|;\H3.0316932797432;88.00
  7
HORIZONTALBIGFONT
  0
LWPOLYLINE
  5
84
100
AcDbEntity
  8
0
  6
CONTINUOUS
 62
     7
100
AcDbPolyline
 90
        4
 70
     1
 10
41.957337
 20
103.641885
 10
57.757337
 20
103.641885
 10
57.757337
 20
193.641885
 10
41.957337
 20
193.641885
  0
LINE
  5
85
100
AcDbEntity
  8
0
  6
CONTINUOUS
 62
     7
100
AcDbLine
 10
43.157337
 20
118.641885
 30
0.0
 11
57.857337
 21
118.641885
 31
0.0
  0
LWPOLYLINE
  5
86
100
AcDbEntity
  8
0
  6
CONTINUOUS
 62
     7
100
AcDbPolyline
 90
        6
 70
     0
 10
43.457337
 20
118.641885
 10
43.457337
 20
113.641885
 10
46.957337
 20
113.641885
 10
46.957337
 20
111.141885
 10
56.157337
 20
111.141885
 10
56.157337
 20
103.641885
  0
LWPOLYLINE
  5
87
100
AcDbEntity
  8
0
  6
CONTINUOUS
 62
     7
100
AcDbPolyline
 90
        5
 70
     0
 10
57.457337
 20
181.141885
 10
48.205923
 20
180.701341
 42
0.400344
 10
46.957337
 20
179.391885
 42
0.400344
 10
48.205923
 20
178.082428
 10
57.457337
 20
177.641885
  0
LWPOLYLINE
  5
88
100
AcDbEntity
  8
0
  6
CONTINUOUS
 62
     7
100
AcDbPolyline
 90
        5
 70
     0
 10
57.457337
 20
173.641885
 10
48.205923
 20
173.201341
 42
0.400344
 10
46.957337
 20
171.891885
 42
0.400344
 10
48.205923
 20
170.582428
 10
57.457337
 20
170.141885
  0
LWPOLYLINE
  5
89
100
AcDbEntity
  8
0
  6
CONTINUOUS
 62
     7
100
AcDbPolyline
 90
        5
 70
     0
 10
57.957337
 20
166.141885
 10
48.206048
 20
165.698644
 42
0.400971
 10
46.957337
 20
164.391885
 42
0.400344
 10
48.205923
 20
163.082428
 10
57.457337
 20
162.641885
  0
LWPOLYLINE
  5
8A
100
AcDbEntity
  8
0
  6
CONTINUOUS
 62
     7
100
AcDbPolyline
 90
        5
 70
     0
 10
57.457337
 20
158.641885
 10
48.205923
 20
158.201341
 42
0.400344
 10
46.957337
 20
156.891885
 42
0.400344
 10
48.205923
 20
155.582428
 10
57.457337
 20
155.141885
  0
LWPOLYLINE
  5
8B
100
AcDbEntity
  8
0
  6
CONTINUOUS
 62
     7
100
AcDbPolyline
 90
        5
 70
     0
 10
57.457337
 20
151.141885
 10
48.205923
 20
150.701341
 42
0.400344
 10
46.957337
 20
149.391885
 42
0.400344
 10
48.205923
 20
148.082428
 10
57.457337
 20
147.641885
  0
LWPOLYLINE
  5
8C
100
AcDbEntity
  8
0
  6
CONTINUOUS
 62
     7
100
AcDbPolyline
 90
        5
 70
     0
 10
57.457337
 20
143.641885
 10
48.45564
 20
143.213233
 42
0.400344
 10
46.957337
 20
141.641885
 42
0.400344
 10
48.45564
 20
140.070537
 10
57.457337
 20
139.641885
  0
LWPOLYLINE
  5
8D
100
AcDbEntity
  8
0
  6
CONTINUOUS
 62
     7
100
AcDbPolyline
 90
        5
 70
     0
 10
57.457337
 20
136.141885
 10
48.205923
 20
135.701341
 42
0.400344
 10
46.957337
 20
134.391885
 42
0.400344
 10
48.205923
 20
133.082428
 10
57.457337
 20
132.641885
  0
LWPOLYLINE
  5
8E
100
AcDbEntity
  8
0
  6
CONTINUOUS
 62
     7
100
AcDbPolyline
 90
        5
 70
     0
 10
57.457337
 20
128.641885
 10
48.45564
 20
128.213233
 42
0.400344
 10
46.957337
 20
126.641885
 42
0.400344
 10
48.45564
 20
125.070537
 10
57.457337
 20
124.641885
  0
LINE
  5
8F
100
AcDbEntity
  8
0
  6
CONTINUOUS
 62
     7
100
AcDbLine
 10
56.457337
 20
128.641885
 30
0.0
 11
56.457337
 21
124.641885
 31
0.0
  0
LINE
  5
90
100
AcDbEntity
  8
0
  6
CONTINUOUS
 62
     7
100
AcDbLine
 10
56.457337
 20
136.141885
 30
0.0
 11
56.457337
 21
132.641885
 31
0.0
  0
LINE
  5
91
100
AcDbEntity
  8
0
  6
CONTINUOUS
 62
     7
100
AcDbLine
 10
56.457337
 20
143.641885
 30
0.0
 11
56.457337
 21
139.641885
 31
0.0
  0
LINE
  5
92
100
AcDbEntity
  8
0
  6
CONTINUOUS
 62
     7
100
AcDbLine
 10
56.457337
 20
181.141885
 30
0.0
 11
56.457337
 21
177.641885
 31
0.0
  0
LINE
  5
93
100
AcDbEntity
  8
0
  6
CONTINUOUS
 62
     7
100
AcDbLine
 10
56.457337
 20
173.641885
 30
0.0
 11
56.457337
 21
170.141885
 31
0.0
  0
LINE
  5
94
100
AcDbEntity
  8
0
  6
CONTINUOUS
 62
     7
100
AcDbLine
 10
56.457337
 20
166.141885
 30
0.0
 11
56.457337
 21
162.641885
 31
0.0
  0
LINE
  5
95
100
AcDbEntity
  8
0
  6
CONTINUOUS
 62
     7
100
AcDbLine
 10
56.457337
 20
158.641885
 30
0.0
 11
56.457337
 21
155.141885
 31
0.0
  0
LINE
  5
96
100
AcDbEntity
  8
0
  6
CONTINUOUS
 62
     7
100
AcDbLine
 10
56.457337
 20
151.141885
 30
0.0
 11
56.457337
 21
147.641885
 31
0.0
  0
LINE
  5
97
100
AcDbEntity
  8
0
  6
CONTINUOUS
 62
     7
100
AcDbLine
 10
43.357337
 20
183.641885
 30
0.0
 11
43.357337
 21
118.641885
 31
0.0
  0
LINE
  5
98
100
AcDbEntity
  8
0
  6
CONTINUOUS
 62
     7
100
AcDbLine
 10
41.957337
 20
119.441885
 30
0.0
 11
43.357337
 21
119.441885
 31
0.0
  0
LINE
  5
99
100
AcDbEntity
  8
0
  6
CONTINUOUS
 62
     7
100
AcDbLine
 10
43.357337
 20
118.641885
 30
0.0
 11
41.957337
 21
117.191885
 31
0.0
  0
LINE
  5
9A
100
AcDbEntity
  8
0
  6
CONTINUOUS
 62
     7
100
AcDbLine
 10
41.957337
 20
181.141885
 30
0.0
 11
43.357337
 21
181.141885
 31
0.0
  0
LINE
  5
9B
100
AcDbEntity
  8
0
  6
CONTINUOUS
 62
     7
100
AcDbLine
 10
41.957337
 20
183.641885
 30
0.0
 11
43.357337
 21
183.641885
 31
0.0
  0
LINE
  5
9D
102
{ACAD_REACTORS
330
9C
102
}
100
AcDbEntity
  8
0
  6
CONTINUOUS
 62
     7
100
AcDbLine
 10
51.707337
 20
99.219085
 30
0.0
 11
49.707337
 21
99.219085
 31
0.0
  0
LINE
  5
9E
102
{ACAD_REACTORS
330
9C
102
}
100
AcDbEntity
  8
0
  6
CONTINUOUS
 62
     7
100
AcDbLine
 10
51.707337
 20
103.599552
 30
0.0
 11
51.707337
 21
99.219085
 31
0.0
  0
LINE
  5
9F
102
{ACAD_REACTORS
330
9C
102
}
100
AcDbEntity
  8
0
  6
CONTINUOUS
 62
     7
100
AcDbLine
 10
51.707337
 20
99.219085
 30
0.0
 11
50.707337
 21
98.641885
 31
0.0
  0
LINE
  5
A0
102
{ACAD_REACTORS
330
9C
102
}
100
AcDbEntity
  8
0
  6
CONTINUOUS
 62
     7
100
AcDbLine
 10
50.707337
 20
98.641885
 30
0.0
 11
49.707337
 21
99.219085
 31
0.0
  0
LINE
  5
A1
102
{ACAD_REACTORS
330
9C
102
}
100
AcDbEntity
  8
0
  6
CONTINUOUS
 62
     7
100
AcDbLine
 10
49.707337
 20
99.219085
 30
0.0
 11
49.707337
 21
103.599552
 31
0.0
  0
LWPOLYLINE
  5
A2
102
{ACAD_REACTORS
330
9C
102
}
100
AcDbEntity
  8
0
  6
CONTINUOUS
 62
     7
100
AcDbPolyline
 90
        8
 70
     0
 10
51.957337
 20
103.630861
 10
51.957337
 20
99.641885
 10
51.707337
 20
98.992366
 10
51.707337
 20
99.641885
 10
49.707337
 20
99.641885
 10
49.707337
 20
98.992366
 10
49.457337
 20
99.641885
 10
49.457337
 20
103.630861
  0
LINE
  5
A3
102
{ACAD_REACTORS
330
9C
102
}
100
AcDbEntity
  8
0
  6
CONTINUOUS
 62
     7
100
AcDbLine
 10
51.957337
 20
99.641885
 30
0.0
 11
49.457337
 21
99.641885
 31
0.0
  0
LWPOLYLINE
  5
A4
100
AcDbEntity
  8
0
  6
CONTINUOUS
 62
     7
100
AcDbPolyline
 90
        4
 70
     1
 10
84.457337
 20
67.641885
 10
173.457337
 20
67.641885
 10
173.457337
 20
83.641885
 10
84.457337
 20
83.641885
  0
LINE
  5
A6
100
AcDbEntity
  8
0
  6
DOT
 62
     7
100
AcDbLine
 10
91.957337
 20
97.641885
 30
0.0
 11
91.957337
 21
97.541885
 31
0.0
  0
LWPOLYLINE
  5
A7
100
AcDbEntity
  8
0
  6
CONTINUOUS
 62
     7
100
AcDbPolyline
 90
        6
 70
     0
 10
173.357337
 20
83.641885
 10
179.076138
 20
79.829351
 42
-0.250765
 10
180.857337
 20
76.50115
 10
180.857337
 20
74.432765
 42
-0.266085
 10
178.881396
 20
70.982666
 10
173.357337
 20
67.741885
  0
LWPOLYLINE
  5
A8
100
AcDbEntity
  8
0
  6
CONTINUOUS
 62
     7
100
AcDbPolyline
 90
        6
 70
     0
 10
84.457337
 20
83.641885
 10
78.738537
 20
79.829351
 42
0.250765
 10
76.957337
 20
76.50115
 10
76.957337
 20
74.332765
 42
0.266085
 10
78.933279
 20
70.882666
 10
84.457337
 20
67.641885
  0
LWPOLYLINE
  5
AA
102
{ACAD_REACTORS
330
A9
102
}
100
AcDbEntity
  8
0
  6
CONTINUOUS
 62
     7
100
AcDbPolyline
 90
        2
 70
     1
 10
78.957337
 20
75.175218
 42
-1.0
 10
82.957337
 20
75.175218
 42
-1.0
  0
ELLIPSE
  5
AB
102
{ACAD_REACTORS
330
A9
102
}
100
AcDbEntity
  8
0
  6
CONTINUOUS
 62
     7
100
AcDbEllipse
 10
80.951087
 20
75.175218
 30
0.0
 11
0.0
 21
-0.7031249762458
 31
0.0
210
0.0
220
0.0
230
1.0
 40
0.986667
 41
1.5707965774554336
 42
4.7123887297241529
  0
ELLIPSE
  5
AC
102
{ACAD_REACTORS
330
A9
102
}
100
AcDbEntity
  8
0
  6
CONTINUOUS
 62
     7
100
AcDbEllipse
 10
80.951087
 20
75.175218
 30
0.0
 11
0.0
 21
-0.7031249762458004
 31
0.0
210
0.0
220
0.0
230
1.0
 40
0.986667
 41
4.7123892310452247
 42
1.5707960761343611
  0
LWPOLYLINE
  5
AD
102
{ACAD_REACTORS
330
A9
102
}
100
AcDbEntity
  8
0
  6
CONTINUOUS
 62
     7
100
AcDbPolyline
 90
        4
 70
     1
 10
81.600125
 20
75.941263
 42
-0.895043
 10
80.467759
 20
74.280616
 42
0.895043
 10
81.600125
 20
75.941263
 42
0.895043
 10
80.161341
 20
74.537731
 42
-0.895043
  0
LWPOLYLINE
  5
AF
102
{ACAD_REACTORS
330
AE
102
}
100
AcDbEntity
  8
0
  6
CONTINUOUS
 62
     7
100
AcDbPolyline
 90
        2
 70
     1
 10
175.557337
 20
75.641885
 42
-1.0
 10
179.557337
 20
75.641885
 42
-1.0
  0
ELLIPSE
  5
B0
102
{ACAD_REACTORS
330
AE
102
}
100
AcDbEntity
  8
0
  6
CONTINUOUS
 62
     7
100
AcDbEllipse
 10
177.551087
 20
75.641885
 30
0.0
 11
0.0
 21
-0.7031249762458
 31
0.0
210
0.0
220
0.0
230
1.0
 40
0.986667
 41
1.5707965774554336
 42
4.7123887297241529
  0
ELLIPSE
  5
B1
102
{ACAD_REACTORS
330
AE
102
}
100
AcDbEntity
  8
0
  6
CONTINUOUS
 62
     7
100
AcDbEllipse
 10
177.551087
 20
75.641885
 30
0.0
 11
0.0
 21
-0.7031249762458004
 31
0.0
210
0.0
220
0.0
230
1.0
 40
0.986667
 41
4.7123892310452247
 42
1.5707960761343611
  0
LWPOLYLINE
  5
B2
102
{ACAD_REACTORS
330
AE
102
}
100
AcDbEntity
  8
0
  6
CONTINUOUS
 62
     7
100
AcDbPolyline
 90
        4
 70
     1
 10
178.200125
 20
76.407929
 42
-0.895043
 10
177.067759
 20
74.747283
 42
0.895043
 10
178.200125
 20
76.407929
 42
0.895043
 10
176.761341
 20
75.004398
 42
-0.895043
  0
LINE
  5
B5
102
{ACAD_REACTORS
330
B3
102
}
100
AcDbEntity
  8
\U+5BF8\U+6CD5
  6
DASHDOTX2
100
AcDbLine
 10
177.457337
 20
65.641885
 30
0.0
 11
177.457337
 21
85.641885
 31
0.0
  0
LINE
  5
B6
102
{ACAD_REACTORS
330
B3
102
}
100
AcDbEntity
  8
\U+5BF8\U+6CD5
  6
DASHDOTX2
100
AcDbLine
 10
167.457337
 20
75.641885
 30
0.0
 11
187.457337
 21
75.641885
 31
0.0
  0
LINE
  5
B8
102
{ACAD_REACTORS
330
B7
102
}
100
AcDbEntity
  8
\U+5BF8\U+6CD5
  6
DASHDOTX2
100
AcDbLine
 10
80.957337
 20
65.141885
 30
0.0
 11
80.957337
 21
85.141885
 31
0.0
  0
LINE
  5
B9
102
{ACAD_REACTORS
330
B7
102
}
100
AcDbEntity
  8
\U+5BF8\U+6CD5
  6
DASHDOTX2
100
AcDbLine
 10
70.957337
 20
75.141885
 30
0.0
 11
90.957337
 21
75.141885
 31
0.0
  0
LWPOLYLINE
  5
BA
100
AcDbEntity
  8
0
  6
CONTINUOUS
 62
     7
100
AcDbPolyline
 90
        4
 70
     1
 10
139.457337
 20
71.641885
 10
161.957337
 20
71.641885
 10
161.957337
 20
78.191885
 10
139.457337
 20
78.191885
  0
LWPOLYLINE
  5
BB
100
AcDbEntity
  8
0
  6
CONTINUOUS
 62
     7
100
AcDbPolyline
 90
        4
 70
     1
 10
140.357337
 20
72.191885
 10
160.957337
 20
72.191885
 10
160.957337
 20
77.641885
 10
140.357337
 20
77.641885
  0
LINE
  5
BC
100
AcDbEntity
  8
0
  6
CONTINUOUS
 62
     7
100
AcDbLine
 10
139.357337
 20
79.641885
 30
0.0
 11
147.957337
 21
79.641885
 31
0.0
  0
LINE
  5
BD
100
AcDbEntity
  8
0
  6
CONTINUOUS
 62
     7
100
AcDbLine
 10
161.957337
 20
79.641885
 30
0.0
 11
152.957337
 21
79.641885
 31
0.0
  0
LINE
  5
BE
100
AcDbEntity
  8
0
  6
CONTINUOUS
 62
     7
100
AcDbLine
 10
152.957337
 20
81.141885
 30
0.0
 11
148.157337
 21
81.141885
 31
0.0
  0
LINE
  5
BF
100
AcDbEntity
  8
0
  6
CONTINUOUS
 62
     7
100
AcDbLine
 10
147.957337
 20
81.191885
 30
0.0
 11
147.957337
 21
79.641885
 31
0.0
  0
LINE
  5
C0
100
AcDbEntity
  8
0
  6
CONTINUOUS
 62
     7
100
AcDbLine
 10
152.957337
 20
81.141885
 30
0.0
 11
152.957337
 21
79.641885
 31
0.0
  0
LINE
  5
C1
100
AcDbEntity
  8
0
  6
CONTINUOUS
 62
     7
100
AcDbLine
 10
139.407337
 20
79.641885
 30
0.0
 11
139.457337
 21
67.641885
 31
0.0
  0
LINE
  5
C2
100
AcDbEntity
  8
0
  6
CONTINUOUS
 62
     7
100
AcDbLine
 10
161.957337
 20
79.641885
 30
0.0
 11
161.957337
 21
67.641885
 31
0.0
  0
LWPOLYLINE
  5
C3
100
AcDbEntity
  8
0
  6
CONTINUOUS
 62
     7
100
AcDbPolyline
 90
        4
 70
     1
 10
148.557337
 20
78.241885
 10
152.457337
 20
78.241885
 10
152.457337
 20
79.191885
 10
148.557337
 20
79.191885
  0
MTEXT
  5
C4
100
AcDbEntity
  8
0
100
AcDbMText
 10
139.368448
 20
69.441885
 30
0.0
 40
1.818983
 41
26.0
 71
     4
 72
     5
  1
\C7;\fＭＳ Ｐゴシック|b0|i0|;\H1.8189826607704;7 8 9 10 11 12 13 14
  7
HORIZONTALBIGFONT
  0
LWPOLYLINE
  5
C5
100
AcDbEntity
  8
0
  6
CONTINUOUS
 62
     7
100
AcDbPolyline
 90
        2
 70
     1
 10
141.207337
 20
74.891885
 42
-1.0
 10
142.707337
 20
74.891885
 42
-1.0
  0
LWPOLYLINE
  5
C6
100
AcDbEntity
  8
0
  6
CONTINUOUS
 62
     7
100
AcDbPolyline
 90
        2
 70
     1
 10
143.957337
 20
74.891885
 42
-1.0
 10
145.457337
 20
74.891885
 42
-1.0
  0
LWPOLYLINE
  5
C7
100
AcDbEntity
  8
0
  6
CONTINUOUS
 62
     7
100
AcDbPolyline
 90
        2
 70
     1
 10
146.457337
 20
74.891885
 42
-1.0
 10
147.957337
 20
74.891885
 42
-1.0
  0
LWPOLYLINE
  5
C8
100
AcDbEntity
  8
0
  6
CONTINUOUS
 62
     7
100
AcDbPolyline
 90
        2
 70
     1
 10
148.957337
 20
74.891885
 42
-1.0
 10
150.457337
 20
74.891885
 42
-1.0
  0
LWPOLYLINE
  5
C9
100
AcDbEntity
  8
0
  6
CONTINUOUS
 62
     7
100
AcDbPolyline
 90
        2
 70
     1
 10
151.457337
 20
74.891885
 42
-1.0
 10
152.957337
 20
74.891885
 42
-1.0
  0
LWPOLYLINE
  5
CA
100
AcDbEntity
  8
0
  6
CONTINUOUS
 62
     7
100
AcDbPolyline
 90
        2
 70
     1
 10
153.957337
 20
74.891885
 42
-1.0
 10
155.457337
 20
74.891885
 42
-1.0
  0
LWPOLYLINE
  5
CB
100
AcDbEntity
  8
0
  6
CONTINUOUS
 62
     7
100
AcDbPolyline
 90
        2
 70
     1
 10
156.207337
 20
74.891885
 42
-1.0
 10
157.707337
 20
74.891885
 42
-1.0
  0
LWPOLYLINE
  5
CC
100
AcDbEntity
  8
0
  6
CONTINUOUS
 62
     7
100
AcDbPolyline
 90
        2
 70
     1
 10
158.457337
 20
74.891885
 42
-1.0
 10
159.957337
 20
74.891885
 42
-1.0
  0
LWPOLYLINE
  5
CD
100
AcDbEntity
  8
0
  6
CONTINUOUS
 62
     7
100
AcDbPolyline
 90
        4
 70
     1
 10
84.757337
 20
213.641885
 10
173.457337
 20
213.641885
 10
173.457337
 20
230.141885
 10
84.757337
 20
230.141885
  0
LWPOLYLINE
  5
CE
100
AcDbEntity
  8
0
  6
CONTINUOUS
 62
     7
100
AcDbPolyline
 90
        6
 70
     0
 10
84.457337
 20
229.641885
 10
78.738537
 20
225.829351
 42
0.250765
 10
76.957337
 20
222.50115
 10
76.957337
 20
220.332765
 42
0.266085
 10
78.933279
 20
216.882666
 10
84.457337
 20
213.641885
  0
LWPOLYLINE
  5
CF
100
AcDbEntity
  8
0
  6
CONTINUOUS
 62
     7
100
AcDbPolyline
 90
        6
 70
     0
 10
173.207337
 20
229.541885
 10
178.926138
 20
225.729351
 42
-0.250765
 10
180.707337
 20
222.40115
 10
180.707337
 20
220.332765
 42
-0.266085
 10
178.731396
 20
216.882666
 10
173.207337
 20
213.641885
  0
LWPOLYLINE
  5
D1
102
{ACAD_REACTORS
330
D0
102
}
100
AcDbEntity
  8
0
  6
CONTINUOUS
 62
     7
100
AcDbPolyline
 90
        2
 70
     1
 10
174.658637
 20
221.940585
 42
-1.0
 10
179.256037
 20
221.940585
 42
-1.0
  0
ARC
  5
D2
102
{ACAD_REACTORS
330
D0
102
}
100
AcDbEntity
  8
0
  6
CONTINUOUS
 62
     7
100
AcDbCircle
 10
176.957337
 20
221.940585
 30
0.0
 40
2.264734
100
AcDbArc
 50
169.991151
 51
190.008849
  0
ARC
  5
D3
102
{ACAD_REACTORS
330
D0
102
}
100
AcDbEntity
  8
0
  6
CONTINUOUS
 62
     7
100
AcDbCircle
 10
176.957337
 20
221.940585
 30
0.0
 40
2.264734
100
AcDbArc
 50
349.991151
 51
10.008849
  0
LINE
  5
D4
102
{ACAD_REACTORS
330
D0
102
}
100
AcDbEntity
  8
0
  6
CONTINUOUS
 62
     7
100
AcDbLine
 10
179.187589
 20
222.334285
 30
0.0
 11
174.727086
 21
222.334285
 31
0.0
  0
LINE
  5
D5
102
{ACAD_REACTORS
330
D0
102
}
100
AcDbEntity
  8
0
  6
CONTINUOUS
 62
     7
100
AcDbLine
 10
179.187589
 20
221.546885
 30
0.0
 11
174.727086
 21
221.546885
 31
0.0
  0
ARC
  5
D6
102
{ACAD_REACTORS
330
D0
102
}
100
AcDbEntity
  8
0
  6
CONTINUOUS
 62
     7
100
AcDbCircle
 10
176.957337
 20
221.940585
 30
0.0
 40
2.227589
100
AcDbArc
 50
10.179824
 51
169.820176
  0
ARC
  5
D7
102
{ACAD_REACTORS
330
D0
102
}
100
AcDbEntity
  8
0
  6
CONTINUOUS
 62
     7
100
AcDbCircle
 10
176.957337
 20
221.940585
 30
0.0
 40
2.227589
100
AcDbArc
 50
190.179824
 51
349.820176
  0
LWPOLYLINE
  5
D9
102
{ACAD_REACTORS
330
D8
102
}
100
AcDbEntity
  8
0
  6
CONTINUOUS
 62
     7
100
AcDbPolyline
 90
        2
 70
     1
 10
78.359937
 20
221.641885
 42
-1.0
 10
82.957337
 20
221.641885
 42
-1.0
  0
ARC
  5
DA
102
{ACAD_REACTORS
330
D8
102
}
100
AcDbEntity
  8
0
  6
CONTINUOUS
 62
     7
100
AcDbCircle
 10
80.658637
 20
221.641885
 30
0.0
 40
2.264734
100
AcDbArc
 50
169.991151
 51
190.008849
  0
ARC
  5
DB
102
{ACAD_REACTORS
330
D8
102
}
100
AcDbEntity
  8
0
  6
CONTINUOUS
 62
     7
100
AcDbCircle
 10
80.658637
 20
221.641885
 30
0.0
 40
2.264734
100
AcDbArc
 50
349.991151
 51
10.008849
  0
LINE
  5
DC
102
{ACAD_REACTORS
330
D8
102
}
100
AcDbEntity
  8
0
  6
CONTINUOUS
 62
     7
100
AcDbLine
 10
82.888889
 20
222.035585
 30
0.0
 11
78.428386
 21
222.035585
 31
0.0
  0
LINE
  5
DD
102
{ACAD_REACTORS
330
D8
102
}
100
AcDbEntity
  8
0
  6
CONTINUOUS
 62
     7
100
AcDbLine
 10
82.888889
 20
221.248185
 30
0.0
 11
78.428386
 21
221.248185
 31
0.0
  0
ARC
  5
DE
102
{ACAD_REACTORS
330
D8
102
}
100
AcDbEntity
  8
0
  6
CONTINUOUS
 62
     7
100
AcDbCircle
 10
80.658637
 20
221.641885
 30
0.0
 40
2.227589
100
AcDbArc
 50
10.179824
 51
169.820176
  0
ARC
  5
DF
102
{ACAD_REACTORS
330
D8
102
}
100
AcDbEntity
  8
0
  6
CONTINUOUS
 62
     7
100
AcDbCircle
 10
80.658637
 20
221.641885
 30
0.0
 40
2.227589
100
AcDbArc
 50
190.179824
 51
349.820176
  0
LWPOLYLINE
  5
E0
100
AcDbEntity
  8
0
  6
CONTINUOUS
 62
     7
100
AcDbPolyline
 90
        4
 70
     1
 10
136.957337
 20
215.041885
 10
171.957337
 20
215.041885
 10
171.957337
 20
228.641885
 10
136.957337
 20
228.641885
  0
LWPOLYLINE
  5
E1
100
AcDbEntity
  8
0
  6
CONTINUOUS
 62
     7
100
AcDbPolyline
 90
        4
 70
     1
 10
86.057337
 20
215.041885
 10
135.457337
 20
215.041885
 10
135.457337
 20
228.641885
 10
86.057337
 20
228.641885
  0
LWPOLYLINE
  5
E2
100
AcDbEntity
  8
0
  6
CONTINUOUS
 62
     7
100
AcDbPolyline
 90
        6
 70
     0
 10
135.357337
 20
217.541885
 10
90.957337
 20
217.541885
 10
90.957337
 20
227.641885
 10
94.457337
 20
227.641885
 10
94.457337
 20
226.141885
 10
135.157337
 20
226.141885
  0
LWPOLYLINE
  5
E3
100
AcDbEntity
  8
0
  6
CONTINUOUS
 62
     7
100
AcDbPolyline
 90
        4
 70
     1
 10
95.457337
 20
218.641885
 10
131.957337
 20
218.641885
 10
131.957337
 20
224.741885
 10
95.457337
 20
224.741885
  0
LWPOLYLINE
  5
E4
100
AcDbEntity
  8
0
  6
CONTINUOUS
 62
     7
100
AcDbPolyline
 90
        4
 70
     1
 10
94.457337
 20
221.141885
 10
95.357337
 20
221.141885
 10
95.357337
 20
222.741885
 10
94.457337
 20
222.741885
  0
LWPOLYLINE
  5
E5
100
AcDbEntity
  8
0
  6
CONTINUOUS
 62
     7
100
AcDbPolyline
 90
        4
 70
     1
 10
131.957337
 20
221.141885
 10
132.857337
 20
221.141885
 10
132.857337
 20
222.641885
 10
131.957337
 20
222.641885
  0
LWPOLYLINE
  5
E7
102
{ACAD_REACTORS
330
E6
102
}
100
AcDbEntity
  8
0
  6
CONTINUOUS
 62
     7
100
AcDbPolyline
 90
        2
 70
     1
 10
102.791737
 20
221.559085
 42
-1.0
 10
106.957337
 20
221.559085
 42
-1.0
  0
LWPOLYLINE
  5
E8
102
{ACAD_REACTORS
330
E6
102
}
100
AcDbEntity
  8
0
  6
CONTINUOUS
 62
     7
100
AcDbPolyline
 90
        2
 70
     1
 10
103.944832
 20
221.559085
 42
-1.0
 10
105.804243
 20
221.559085
 42
-1.0
  0
LWPOLYLINE
  5
E9
102
{ACAD_REACTORS
330
E6
102
}
100
AcDbEntity
  8
0
  6
CONTINUOUS
 62
     7
100
AcDbPolyline
 90
        6
 70
     1
 10
104.239537
 20
221.192467
 10
104.874537
 20
220.82585
 10
105.509537
 20
221.192467
 10
105.509537
 20
221.925702
 10
104.874537
 20
222.29232
 10
104.239537
 20
221.925702
  0
LWPOLYLINE
  5
EB
102
{ACAD_REACTORS
330
EA
102
}
100
AcDbEntity
  8
0
  6
CONTINUOUS
 62
     7
100
AcDbPolyline
 90
        2
 70
     1
 10
108.582337
 20
221.559085
 42
-1.0
 10
112.747937
 20
221.559085
 42
-1.0
  0
LWPOLYLINE
  5
EC
102
{ACAD_REACTORS
330
EA
102
}
100
AcDbEntity
  8
0
  6
CONTINUOUS
 62
     7
100
AcDbPolyline
 90
        2
 70
     1
 10
109.735432
 20
221.559085
 42
-1.0
 10
111.594843
 20
221.559085
 42
-1.0
  0
LWPOLYLINE
  5
ED
102
{ACAD_REACTORS
330
EA
102
}
100
AcDbEntity
  8
0
  6
CONTINUOUS
 62
     7
100
AcDbPolyline
 90
        6
 70
     1
 10
110.030137
 20
221.192467
 10
110.665137
 20
220.82585
 10
111.300137
 20
221.192467
 10
111.300137
 20
221.925702
 10
110.665137
 20
222.29232
 10
110.030137
 20
221.925702
  0
LWPOLYLINE
  5
EF
102
{ACAD_REACTORS
330
EE
102
}
100
AcDbEntity
  8
0
  6
CONTINUOUS
 62
     7
100
AcDbPolyline
 90
        2
 70
     1
 10
114.457337
 20
221.559085
 42
-1.0
 10
118.622937
 20
221.559085
 42
-1.0
  0
LWPOLYLINE
  5
F0
102
{ACAD_REACTORS
330
EE
102
}
100
AcDbEntity
  8
0
  6
CONTINUOUS
 62
     7
100
AcDbPolyline
 90
        2
 70
     1
 10
115.610432
 20
221.559085
 42
-1.0
 10
117.469843
 20
221.559085
 42
-1.0
  0
LWPOLYLINE
  5
F1
102
{ACAD_REACTORS
330
EE
102
}
100
AcDbEntity
  8
0
  6
CONTINUOUS
 62
     7
100
AcDbPolyline
 90
        6
 70
     1
 10
115.905137
 20
221.192467
 10
116.540137
 20
220.82585
 10
117.175137
 20
221.192467
 10
117.175137
 20
221.925702
 10
116.540137
 20
222.29232
 10
115.905137
 20
221.925702
  0
LWPOLYLINE
  5
F3
102
{ACAD_REACTORS
330
F2
102
}
100
AcDbEntity
  8
0
  6
CONTINUOUS
 62
     7
100
AcDbPolyline
 90
        2
 70
     1
 10
119.874537
 20
221.559085
 42
-1.0
 10
124.040137
 20
221.559085
 42
-1.0
  0
LWPOLYLINE
  5
F4
102
{ACAD_REACTORS
330
F2
102
}
100
AcDbEntity
  8
0
  6
CONTINUOUS
 62
     7
100
AcDbPolyline
 90
        2
 70
     1
 10
121.027632
 20
221.559085
 42
-1.0
 10
122.887043
 20
221.559085
 42
-1.0
  0
LWPOLYLINE
  5
F5
102
{ACAD_REACTORS
330
F2
102
}
100
AcDbEntity
  8
0
  6
CONTINUOUS
 62
     7
100
AcDbPolyline
 90
        6
 70
     1
 10
121.322337
 20
221.192467
 10
121.957337
 20
220.82585
 10
122.592337
 20
221.192467
 10
122.592337
 20
221.925702
 10
121.957337
 20
222.29232
 10
121.322337
 20
221.925702
  0
LWPOLYLINE
  5
F7
102
{ACAD_REACTORS
330
F6
102
}
100
AcDbEntity
  8
0
  6
CONTINUOUS
 62
     7
100
AcDbPolyline
 90
        2
 70
     1
 10
97.374537
 20
221.559085
 42
-1.0
 10
101.540137
 20
221.559085
 42
-1.0
  0
LWPOLYLINE
  5
F8
102
{ACAD_REACTORS
330
F6
102
}
100
AcDbEntity
  8
0
  6
CONTINUOUS
 62
     7
100
AcDbPolyline
 90
        2
 70
     1
 10
98.527632
 20
221.559085
 42
-1.0
 10
100.387043
 20
221.559085
 42
-1.0
  0
LWPOLYLINE
  5
F9
102
{ACAD_REACTORS
330
F6
102
}
100
AcDbEntity
  8
0
  6
CONTINUOUS
 62
     7
100
AcDbPolyline
 90
        6
 70
     1
 10
98.822337
 20
221.192467
 10
99.457337
 20
220.82585
 10
100.092337
 20
221.192467
 10
100.092337
 20
221.925702
 10
99.457337
 20
222.29232
 10
98.822337
 20
221.925702
  0
LWPOLYLINE
  5
FB
102
{ACAD_REACTORS
330
FA
102
}
100
AcDbEntity
  8
0
  6
CONTINUOUS
 62
     7
100
AcDbPolyline
 90
        2
 70
     1
 10
125.291737
 20
221.559085
 42
-1.0
 10
129.457337
 20
221.559085
 42
-1.0
  0
LWPOLYLINE
  5
FC
102
{ACAD_REACTORS
330
FA
102
}
100
AcDbEntity
  8
0
  6
CONTINUOUS
 62
     7
100
AcDbPolyline
 90
        2
 70
     1
 10
126.444832
 20
221.559085
 42
-1.0
 10
128.304243
 20
221.559085
 42
-1.0
  0
LWPOLYLINE
  5
FD
102
{ACAD_REACTORS
330
FA
102
}
100
AcDbEntity
  8
0
  6
CONTINUOUS
 62
     7
100
AcDbPolyline
 90
        6
 70
     1
 10
126.739537
 20
221.192467
 10
127.374537
 20
220.82585
 10
128.009537
 20
221.192467
 10
128.009537
 20
221.925702
 10
127.374537
 20
222.29232
 10
126.739537
 20
221.925702
  0
LINE
  5
FE
100
AcDbEntity
  8
0
  6
CONTINUOUS
 62
     7
100
AcDbLine
 10
97.407337
 20
221.641885
 30
0.0
 11
97.407337
 21
219.641885
 31
0.0
  0
LINE
  5
FF
100
AcDbEntity
  8
0
  6
CONTINUOUS
 62
     7
100
AcDbLine
 10
101.457337
 20
221.641885
 30
0.0
 11
101.457337
 21
219.641885
 31
0.0
  0
LINE
  5
100
100
AcDbEntity
  8
0
  6
CONTINUOUS
 62
     7
100
AcDbLine
 10
97.407337
 20
219.641885
 30
0.0
 11
101.407337
 21
219.641885
 31
0.0
  0
LINE
  5
101
100
AcDbEntity
  8
0
  6
CONTINUOUS
 62
     7
100
AcDbLine
 10
129.407337
 20
221.641885
 30
0.0
 11
129.407337
 21
219.641885
 31
0.0
  0
LWPOLYLINE
  5
102
100
AcDbEntity
  8
0
  6
CONTINUOUS
 62
     7
100
AcDbPolyline
 90
        3
 70
     0
 10
125.357337
 20
221.641885
 10
125.357337
 20
219.641885
 10
129.357337
 20
219.641885
  0
LWPOLYLINE
  5
103
100
AcDbEntity
  8
0
  6
CONTINUOUS
 62
     7
100
AcDbPolyline
 90
        2
 70
     1
 10
167.957337
 20
225.841885
 42
-1.0
 10
169.557337
 20
225.841885
 42
-1.0
  0
LWPOLYLINE
  5
105
102
{ACAD_REACTORS
330
104
102
}
100
AcDbEntity
  8
\U+5BF8\U+6CD5
  6
CONTINUOUS
100
AcDbPolyline
 90
        2
 70
     1
 10
76.957337
 20
241.669663
 10
76.957337
 20
232.905774
  0
LWPOLYLINE
  5
106
102
{ACAD_REACTORS
330
104
102
}
100
AcDbEntity
  8
\U+5BF8\U+6CD5
  6
CONTINUOUS
100
AcDbPolyline
 90
        2
 70
     1
 10
180.557337
 20
241.669663
 10
180.557337
 20
227.905774
  0
LINE
  5
107
102
{ACAD_REACTORS
330
104
102
}
100
AcDbEntity
  8
\U+5BF8\U+6CD5
  6
CONTINUOUS
100
AcDbLine
 10
128.757337
 20
238.141885
 30
0.0
 11
76.957337
 21
238.141885
 31
0.0
  0
LINE
  5
108
102
{ACAD_REACTORS
330
104
102
}
100
AcDbEntity
  8
\U+5BF8\U+6CD5
  6
CONTINUOUS
100
AcDbLine
 10
128.757337
 20
238.141885
 30
0.0
 11
180.557337
 21
238.141885
 31
0.0
  0
MTEXT
  5
109
100
AcDbEntity
  8
\U+5BF8\U+6CD5
100
AcDbMText
 10
128.757337
 20
241.141137
 30
0.0
 40
3.031693
 41
12.613388
 71
     5
 72
     5
  1
\C7;\fＭＳ ゴシック|b0|i0|;\H3.0316932797432;104.00
  7
HORIZONTALBIGFONT
  0
ENDSEC
  0
SECTION
  2
OBJECTS
  0
DICTIONARY
  5
C
100
AcDbDictionary
  3
ACAD_GROUP
350
D
  3
ACAD_MLINESTYLE
350
1B
  0
DICTIONARY
  5
D
102
{ACAD_REACTORS
330
C
102
}
100
AcDbDictionary
  3
VISIOGROUP_0
350
31
  3
VISIOGROUP_1
350
39
  3
VISIOGROUP_2
350
3F
  3
VISIOGROUP_3
350
65
  3
VISIOGROUP_4
350
6D
  3
VISIOGROUP_5
350
7E
  3
VISIOGROUP_6
350
9C
  3
VISIOGROUP_7
350
A9
  3
VISIOGROUP_8
350
AE
  3
VISIOGROUP_9
350
B3
  3
VISIOGROUP_10
350
B7
  3
VISIOGROUP_11
350
D0
  3
VISIOGROUP_12
350
D8
  3
VISIOGROUP_13
350
E6
  3
VISIOGROUP_14
350
EA
  3
VISIOGROUP_15
350
EE
  3
VISIOGROUP_16
350
F2
  3
VISIOGROUP_17
350
F6
  3
VISIOGROUP_18
350
FA
  3
VISIOGROUP_19
350
104
  0
DICTIONARY
  5
1B
102
{ACAD_REACTORS
330
C
102
}
100
AcDbDictionary
  3
STANDARD
350
1C
  0
MLINESTYLE
  5
1C
102
{ACAD_REACTORS
330
1B
102
}
100
AcDbMlineStyle
  2
STANDARD
 70
     0
  3

 62
   256
 51
90.0
 52
90.0
 71
     2
 49
0.5
 62
   256
  6
BYLAYER
 49
-0.5
 62
   256
  6
BYLAYER
  0
GROUP
  5
31
102
{ACAD_REACTORS
330
D
102
}
100
AcDbGroup
300
Group created by Visio.
 70
     0
 71
     1
340
33
340
34
340
35
340
36
  0
GROUP
  5
39
102
{ACAD_REACTORS
330
D
102
}
100
AcDbGroup
300
Group created by Visio.
 70
     0
 71
     1
340
3A
340
3B
340
3C
340
3D
  0
GROUP
  5
3F
102
{ACAD_REACTORS
330
D
102
}
100
AcDbGroup
300
Group created by Visio.
 70
     0
 71
     1
340
40
340
41
340
42
340
43
  0
GROUP
  5
65
102
{ACAD_REACTORS
330
D
102
}
100
AcDbGroup
300
Group created by Visio.
 70
     0
 71
     1
340
66
340
67
340
68
340
69
340
6A
340
6B
340
6C
  0
GROUP
  5
6D
102
{ACAD_REACTORS
330
D
102
}
100
AcDbGroup
300
Group created by Visio.
 70
     0
 71
     1
340
6E
340
6F
340
70
340
71
340
72
340
73
340
74
  0
GROUP
  5
7E
102
{ACAD_REACTORS
330
D
102
}
100
AcDbGroup
300
Group created by Visio.
 70
     0
 71
     1
340
7F
340
80
340
81
340
82
  0
GROUP
  5
9C
102
{ACAD_REACTORS
330
D
102
}
100
AcDbGroup
300
Group created by Visio.
 70
     0
 71
     1
340
9D
340
9E
340
9F
340
A0
340
A1
340
A2
340
A3
  0
GROUP
  5
A9
102
{ACAD_REACTORS
330
D
102
}
100
AcDbGroup
300
Group created by Visio.
 70
     0
 71
     1
340
AA
340
AB
340
AC
340
AD
  0
GROUP
  5
AE
102
{ACAD_REACTORS
330
D
102
}
100
AcDbGroup
300
Group created by Visio.
 70
     0
 71
     1
340
AF
340
B0
340
B1
340
B2
  0
GROUP
  5
B3
102
{ACAD_REACTORS
330
D
102
}
100
AcDbGroup
300
Group created by Visio.
 70
     0
 71
     1
340
B5
340
B6
  0
GROUP
  5
B7
102
{ACAD_REACTORS
330
D
102
}
100
AcDbGroup
300
Group created by Visio.
 70
     0
 71
     1
340
B8
340
B9
  0
GROUP
  5
D0
102
{ACAD_REACTORS
330
D
102
}
100
AcDbGroup
300
Group created by Visio.
 70
     0
 71
     1
340
D1
340
D2
340
D3
340
D4
340
D5
340
D6
340
D7
  0
GROUP
  5
D8
102
{ACAD_REACTORS
330
D
102
}
100
AcDbGroup
300
Group created by Visio.
 70
     0
 71
     1
340
D9
340
DA
340
DB
340
DC
340
DD
340
DE
340
DF
  0
GROUP
  5
E6
102
{ACAD_REACTORS
330
D
102
}
100
AcDbGroup
300
Group created by Visio.
 70
     0
 71
     1
340
E7
340
E8
340
E9
  0
GROUP
  5
EA
102
{ACAD_REACTORS
330
D
102
}
100
AcDbGroup
300
Group created by Visio.
 70
     0
 71
     1
340
EB
340
EC
340
ED
  0
GROUP
  5
EE
102
{ACAD_REACTORS
330
D
102
}
100
AcDbGroup
300
Group created by Visio.
 70
     0
 71
     1
340
EF
340
F0
340
F1
  0
GROUP
  5
F2
102
{ACAD_REACTORS
330
D
102
}
100
AcDbGroup
300
Group created by Visio.
 70
     0
 71
     1
340
F3
340
F4
340
F5
  0
GROUP
  5
F6
102
{ACAD_REACTORS
330
D
102
}
100
AcDbGroup
300
Group created by Visio.
 70
     0
 71
     1
340
F7
340
F8
340
F9
  0
GROUP
  5
FA
102
{ACAD_REACTORS
330
D
102
}
100
AcDbGroup
300
Group created by Visio.
 70
     0
 71
     1
340
FB
340
FC
340
FD
  0
GROUP
  5
104
102
{ACAD_REACTORS
330
D
102
}
100
AcDbGroup
300
Group created by Visio.
 70
     0
 71
     1
340
105
340
106
340
107
340
108
  0
ENDSEC
  0
EOF
