  0
SECTION
  2
HEADER
  9
$ACADVER
  1
AC1014
  9
$ACADMAINTVER
 70
     0
  9
$DWGCODEPAGE
  3
DOS932
  9
$INSBASE
 10
0.0
 20
0.0
 30
0.0
  9
$EXTMIN
 10
0.0
 20
0.0
 30
0.0
  9
$EXTMAX
 10
210.0
 20
297.0
 30
0.0
  9
$LIMMIN
 10
0.0
 20
0.0
  9
$LIMMAX
 10
12.0
 20
9.0
  9
$ORTHOMODE
 70
     0
  9
$REGENMODE
 70
     1
  9
$FILLMODE
 70
     0
  9
$QTEXTMODE
 70
     0
  9
$MIRRTEXT
 70
     1
  9
$DRAGMODE
 70
     2
  9
$LTSCALE
 40
1.0
  9
$OSMODE
 70
     0
  9
$ATTMODE
 70
     1
  9
$TEXTSIZE
 40
0.2
  9
$TRACEWID
 40
0.05
  9
$TEXTSTYLE
  7
STANDARD
  9
$CLAYER
  8
0
  9
$CELTYPE
  6
BYLAYER
  9
$CECOLOR
 62
   256
  9
$CELTSCALE
 40
1.0
  9
$DELOBJ
 70
     1
  9
$DISPSILH
 70
     0
  9
$DIMSCALE
 40
1.0
  9
$DIMASZ
 40
0.18
  9
$DIMEXO
 40
0.0625
  9
$DIMDLI
 40
0.38
  9
$DIMRND
 40
0.0
  9
$DIMDLE
 40
0.0
  9
$DIMEXE
 40
0.18
  9
$DIMTP
 40
0.0
  9
$DIMTM
 40
0.0
  9
$DIMTXT
 40
0.18
  9
$DIMCEN
 40
0.09
  9
$DIMTSZ
 40
0.0
  9
$DIMTOL
 70
     0
  9
$DIMLIM
 70
     0
  9
$DIMTIH
 70
     0
  9
$DIMTOH
 70
     0
  9
$DIMSE1
 70
     0
  9
$DIMSE2
 70
     0
  9
$DIMTAD
 70
     1
  9
$DIMZIN
 70
     0
  9
$DIMBLK
  1

  9
$DIMASO
 70
     1
  9
$DIMSHO
 70
     1
  9
$DIMPOST
  1

  9
$DIMAPOST
  1

  9
$DIMALT
 70
     0
  9
$DIMALTD
 70
     2
  9
$DIMALTF
 40
25.4
  9
$DIMLFAC
 40
1.0
  9
$DIMTOFL
 70
     0
  9
$DIMTVP
 40
0.0
  9
$DIMTIX
 70
     0
  9
$DIMSOXD
 70
     0
  9
$DIMSAH
 70
     0
  9
$DIMBLK1
  1

  9
$DIMBLK2
  1

  9
$DIMSTYLE
  2
STANDARD
  9
$DIMCLRD
 70
     0
  9
$DIMCLRE
 70
     0
  9
$DIMCLRT
 70
     0
  9
$DIMTFAC
 40
1.0
  9
$DIMGAP
 40
0.09
  9
$DIMJUST
 70
     0
  9
$DIMSD1
 70
     0
  9
$DIMSD2
 70
     0
  9
$DIMTOLJ
 70
     1
  9
$DIMTZIN
 70
     0
  9
$DIMALTZ
 70
     0
  9
$DIMALTTZ
 70
     0
  9
$DIMFIT
 70
     3
  9
$DIMUPT
 70
     0
  9
$DIMUNIT
 70
     2
  9
$DIMDEC
 70
     2
  9
$DIMTDEC
 70
     4
  9
$DIMALTU
 70
     2
  9
$DIMALTTD
 70
     2
  9
$DIMTXSTY
  7
STANDARD
  9
$DIMAUNIT
 70
     0
  9
$LUNITS
 70
     2
  9
$LUPREC
 70
     4
  9
$SKETCHINC
 40
0.1
  9
$FILLETRAD
 40
0.5
  9
$AUNITS
 70
     0
  9
$AUPREC
 70
     0
  9
$MENU
  1
.
  9
$ELEVATION
 40
0.0
  9
$PELEVATION
 40
0.0
  9
$THICKNESS
 40
0.0
  9
$LIMCHECK
 70
     0
  9
$BLIPMODE
 70
     0
  9
$CHAMFERA
 40
0.5
  9
$CHAMFERB
 40
0.5
  9
$CHAMFERC
 40
1.0
  9
$CHAMFERD
 40
0.0
  9
$SKPOLY
 70
     0
  9
$TDCREATE
 40
2450772.666465926
  9
$TDUPDATE
 40
2453650.764270822
  9
$TDINDWG
 40
0.0011564931
  9
$TDUSRTIMER
 40
0.0000000000
  9
$USRTIMER
 70
     1
  9
$ANGBASE
 50
0.0
  9
$ANGDIR
 70
     0
  9
$PDMODE
 70
     0
  9
$PDSIZE
 40
0.0
  9
$PLINEWID
 40
0.0
  9
$COORDS
 70
     1
  9
$SPLFRAME
 70
     0
  9
$SPLINETYPE
 70
     6
  9
$SPLINESEGS
 70
     8
  9
$ATTDIA
 70
     0
  9
$ATTREQ
 70
     1
  9
$HANDLING
 70
     1
  9
$HANDSEED
  5
10F
  9
$SURFTAB1
 70
     6
  9
$SURFTAB2
 70
     6
  9
$SURFTYPE
 70
     6
  9
$SURFU
 70
     6
  9
$SURFV
 70
     6
  9
$UCSNAME
  2

  9
$UCSORG
 10
0.0
 20
0.0
 30
0.0
  9
$UCSXDIR
 10
1.0
 20
0.0
 30
0.0
  9
$UCSYDIR
 10
0.0
 20
1.0
 30
0.0
  9
$PUCSNAME
  2

  9
$PUCSORG
 10
0.0
 20
0.0
 30
0.0
  9
$PUCSXDIR
 10
1.0
 20
0.0
 30
0.0
  9
$PUCSYDIR
 10
0.0
 20
1.0
 30
0.0
  9
$USERI1
 70
     0
  9
$USERI2
 70
     0
  9
$USERI3
 70
     0
  9
$USERI4
 70
     0
  9
$USERI5
 70
     0
  9
$USERR1
 40
0.0
  9
$USERR2
 40
0.0
  9
$USERR3
 40
0.0
  9
$USERR4
 40
0.0
  9
$USERR5
 40
0.0
  9
$WORLDVIEW
 70
     1
  9
$SHADEDGE
 70
     3
  9
$SHADEDIF
 70
    70
  9
$TILEMODE
 70
     1
  9
$MAXACTVP
 70
    48
  9
$PINSBASE
 10
0.0
 20
0.0
 30
0.0
  9
$PLIMCHECK
 70
     0
  9
$PEXTMIN
 10
0.0
 20
0.0
 30
0.0
  9
$PEXTMAX
 10
0.0
 20
0.0
 30
0.0
  9
$PLIMMIN
 10
0.0
 20
0.0
  9
$PLIMMAX
 10
12.0
 20
9.0
  9
$UNITMODE
 70
     0
  9
$VISRETAIN
 70
     1
  9
$PLINEGEN
 70
     0
  9
$PSLTSCALE
 70
     1
  9
$TREEDEPTH
 70
  3020
  9
$PICKSTYLE
 70
     1
  9
$CMLSTYLE
  2
STANDARD
  9
$CMLJUST
 70
     0
  9
$CMLSCALE
 40
1.0
  9
$PROXYGRAPHICS
 70
     1
  9
$MEASUREMENT
 70
     0
  0
ENDSEC
  0
SECTION
  2
CLASSES
  0
CLASS
  1
LWPOLYLINE
  2
AcDbPolyline
  3
"AutoCAD"
 90
        0
280
     0
281
     1
  0
CLASS
  1
IMAGE
  2
AcDbRasterImage
  3
ISM
 90
      127
280
     0
281
     1
  0
CLASS
  1
OLE2FRAME
  2
AcDbOle2Frame
  3
""
 90
        0
280
     0
281
     1
  0
CLASS
  1
HATCH
  2
AcDbHatch
  3
"ACAD_SEDONA"
 90
        0
280
     0
281
     1
  0
CLASS
  1
DICTIONARYVAR
  2
AcDbDictionaryVar
  3
"AutoCAD"
 90
        0
280
     0
281
     0
  0
CLASS
  1
RASTERVARIABLES
  2
AcDbRasterVariables
  3
ISM
 90
        0
280
     0
281
     0
  0
CLASS
  1
IMAGEDEF
  2
AcDbRasterImageDef
  3
ISM
 90
        0
280
     0
281
     0
  0
CLASS
  1
IMAGEDEF_REACTOR
  2
AcDbRasterImageDefReactor
  3
ISM
 90
        1
280
     0
281
     0
  0
CLASS
  1
IDBUFFER
  2
AcDbIdBuffer
  3
"Acad"
 90
        0
280
     0
281
     0
  0
CLASS
  1
SPATIAL_FILTER
  2
AcDbSpatialFilter
  3
"Acad"
 90
        0
280
     0
281
     0
  0
CLASS
  1
XRECORD
  2
AcDbXrecord
  3
"<Built In>"
 90
        0
280
     0
281
     0
  0
CLASS
  1
SORTENTSTABLE
  2
AcDbSortentsTable
  3
"AutoCAD"
 90
        0
280
     0
281
     0
  0
CLASS
  1
LAYER_INDEX
  2
AcDbLayerIndex
  3
"Acad"
 90
        0
280
     0
281
     0
  0
CLASS
  1
SPATIAL_INDEX
  2
AcDbSpatialIndex
  3
"Acad"
 90
        0
280
     0
281
     0
  0
CLASS
  1
OBJECT_PTR
  2
CAseDLPNTableRecord
  3
"ASE-LPNTableRecord"
 90
        1
280
     0
281
     0
  0
CLASS
  1
LAYOUT
  2
AcDbLayout
  3
"AutoCAD 2000"
 90
        1
280
     0
281
     0
  0
CLASS
  1
PLOTSETTINGS
  2
AcDbPlotSettings
  3
"AutoCAD 2000"
 90
        1
280
     0
281
     0
  0
CLASS
  1
ACDBDICTIONARYWDFLT
  2
AcDbDictionaryWithDefault
  3
"AutoCAD 2000"
 90
        1
280
     0
281
     0
  0
CLASS
  1
ACDBPLACEHOLDER
  2
AcDbPlaceHolder
  3
"AutoCAD 2000"
 90
        1
280
     0
281
     0
  0
CLASS
  1
VBA_PROJECT
  2
AcDbVbaProject
  3
"acadvba"
 90
        1
280
     0
281
     0
  0
CLASS
  1
WIPEOUT
  2
AcDbWipeout
  3
WipeOut|AutoCAD Express Tool|expresstools@autodesk.com
 90
      127
280
     0
281
     1
  0
CLASS
  1
WIPEOUTVARIABLES
  2
AcDbWipeoutVariables
  3
WipeOut|AutoCAD Express Tool|expresstools@autodesk.com
 90
        0
280
     0
281
     0
  0
CLASS
  1
RTEXT
  2
RText
  3
RText|AutoCAD Express Tool|expresstools@autodesk.com
 90
        0
280
     0
281
     1
  0
CLASS
  1
ARCALIGNEDTEXT
  2
AcDbArcAlignedText
  3
ATEXT|AutoCAD Express Tool|expresstools@autodesk.com
 90
        0
280
     0
281
     1
  0
ENDSEC
  0
SECTION
  2
TABLES
  0
TABLE
  2
VPORT
  5
8
100
AcDbSymbolTable
 70
     1
  0
VPORT
  5
25
100
AcDbSymbolTableRecord
100
AcDbViewportTableRecord
  2
*ACTIVE
 70
     0
 10
0.0
 20
0.0
 11
1.0
 21
1.0
 12
105.0
 22
148.5
 13
0.0
 23
0.0
 14
0.5
 24
0.5
 15
0.5
 25
0.5
 16
0.0
 26
0.0
 36
1.0
 17
0.0
 27
0.0
 37
0.0
 40
297.0
 41
0.707071
 42
50.0
 43
0.0
 44
0.0
 50
0.0
 51
0.0
 71
     0
 72
   100
 73
     1
 74
     1
 75
     0
 76
     0
 77
     0
 78
     0
  0
ENDTAB
  0
TABLE
  2
LTYPE
  5
5
100
AcDbSymbolTable
 70
     3
  0
LTYPE
  5
12
100
AcDbSymbolTableRecord
100
AcDbLinetypeTableRecord
  2
BYBLOCK
 70
    64
  3

 72
    65
 73
     0
 40
0.0
  0
LTYPE
  5
13
100
AcDbSymbolTableRecord
100
AcDbLinetypeTableRecord
  2
BYLAYER
 70
    64
  3

 72
    65
 73
     0
 40
0.0
  0
LTYPE
  5
14
100
AcDbSymbolTableRecord
100
AcDbLinetypeTableRecord
  2
CONTINUOUS
 70
     0
  3
Solid line
 72
    65
 73
     0
 40
0.0
  0
ENDTAB
  0
TABLE
  2
LAYER
  5
2
100
AcDbSymbolTable
 70
     1
  0
LAYER
  5
E
100
AcDbSymbolTableRecord
100
AcDbLayerTableRecord
  2
0
 70
     0
 62
     7
  6
CONTINUOUS
  0
ENDTAB
  0
TABLE
  2
STYLE
  5
3
100
AcDbSymbolTable
 70
     2
  0
STYLE
  5
F
100
AcDbSymbolTableRecord
100
AcDbTextStyleTableRecord
  2
STANDARD
 70
     0
 40
0.0
 41
1.0
 50
0.0
 71
     0
 42
0.2
  3
txt.shx
  4

  0
STYLE
  5
FD
100
AcDbSymbolTableRecord
100
AcDbTextStyleTableRecord
  2
HORIZONTALBIGFONT
 70
     0
 40
0.0
 41
1.0
 50
0.0
 71
     0
 42
0.2
  3
txt.shx
  4
bigfont.shx
  0
ENDTAB
  0
TABLE
  2
VIEW
  5
6
100
AcDbSymbolTable
 70
     0
  0
ENDTAB
  0
TABLE
  2
UCS
  5
7
100
AcDbSymbolTable
 70
     0
  0
ENDTAB
  0
TABLE
  2
APPID
  5
9
100
AcDbSymbolTable
 70
     1
  0
APPID
  5
10
100
AcDbSymbolTableRecord
100
AcDbRegAppTableRecord
  2
ACAD
 70
     0
  0
ENDTAB
  0
TABLE
  2
DIMSTYLE
  5
A
100
AcDbSymbolTable
 70
     1
  0
DIMSTYLE
105
1D
100
AcDbSymbolTableRecord
100
AcDbDimStyleTableRecord
  2
STANDARD
 70
     0
  3

  4

  5

  6

  7

 40
1.0
 41
0.18
 42
0.0625
 43
0.38
 44
0.18
 45
0.0
 46
0.0
 47
0.0
 48
0.0
 71
     0
 72
     0
 73
     1
 74
     1
 75
     0
 76
     0
 77
     0
 78
     0
140
0.18
141
0.09
142
0.0
143
25.4
144
1.0
145
0.0
146
1.0
147
0.09
170
     0
171
     2
172
     0
173
     0
174
     0
175
     0
176
     0
177
     0
178
     0
270
     2
271
     4
272
     4
273
     2
274
     2
275
     0
280
     0
281
     0
282
     0
283
     1
284
     0
285
     0
286
     0
287
     3
288
     0
340
F
  0
ENDTAB
  0
TABLE
  2
BLOCK_RECORD
  5
1
100
AcDbSymbolTable
 70
     0
  0
BLOCK_RECORD
  5
18
100
AcDbSymbolTableRecord
100
AcDbBlockTableRecord
  2
*MODEL_SPACE
  0
BLOCK_RECORD
  5
15
100
AcDbSymbolTableRecord
100
AcDbBlockTableRecord
  2
*PAPER_SPACE
  0
ENDTAB
  0
ENDSEC
  0
SECTION
  2
BLOCKS
  0
BLOCK
  5
19
100
AcDbEntity
  8
0
100
AcDbBlockBegin
  2
*MODEL_SPACE
 70
     0
 10
0.0
 20
0.0
 30
0.0
  3
*MODEL_SPACE
  1

  0
ENDBLK
  5
1A
100
AcDbEntity
  8
0
100
AcDbBlockEnd
  0
BLOCK
  5
16
100
AcDbEntity
 67
     1
  8
0
100
AcDbBlockBegin
  2
*PAPER_SPACE
 70
     0
 10
0.0
 20
0.0
 30
0.0
  3
*PAPER_SPACE
  1

  0
ENDBLK
  5
17
100
AcDbEntity
 67
     1
  8
0
100
AcDbBlockEnd
  0
ENDSEC
  0
SECTION
  2
ENTITIES
  0
LWPOLYLINE
  5
32
102
{ACAD_REACTORS
330
31
102
}
100
AcDbEntity
  8
0
  6
CONTINUOUS
 62
     7
100
AcDbPolyline
 90
        3
 70
     0
 10
75.0
 20
84.25
 10
79.0
 20
84.25
 42
-0.261755
 10
72.0
 20
81.25
  0
LWPOLYLINE
  5
33
102
{ACAD_REACTORS
330
31
102
}
100
AcDbEntity
  8
0
  6
CONTINUOUS
 62
     7
100
AcDbPolyline
 90
       14
 70
     1
 10
111.998675
 20
189.820798
 10
73.619065
 20
189.820798
 10
73.443896
 20
173.312083
 10
39.758826
 20
173.312083
 10
39.758826
 20
79.885376
 10
74.267192
 20
79.885376
 42
0.214223
 10
75.721098
 20
85.528482
 10
110.59732
 20
85.703734
 10
108.775558
 20
83.846065
 42
0.094645
 10
110.772489
 20
79.885376
 10
122.403736
 20
79.885376
 10
144.422526
 20
83.916166
 10
144.772864
 20
173.136831
 10
111.998675
 20
172.96158
  0
LWPOLYLINE
  5
34
102
{ACAD_REACTORS
330
31
102
}
100
AcDbEntity
  8
0
  6
CONTINUOUS
 62
     7
100
AcDbPolyline
 90
        4
 70
     1
 10
42.25
 20
202.25
 10
56.75
 20
202.25
 10
56.75
 20
217.75
 10
42.25
 20
217.75
  0
LWPOLYLINE
  5
35
102
{ACAD_REACTORS
330
31
102
}
100
AcDbEntity
  8
0
  6
CONTINUOUS
 62
     7
100
AcDbPolyline
 90
        4
 70
     1
 10
43.0
 20
211.5
 10
46.5
 20
211.5
 10
46.5
 20
216.0
 10
43.0
 20
216.0
  0
LWPOLYLINE
  5
36
102
{ACAD_REACTORS
330
31
102
}
100
AcDbEntity
  8
0
  6
CONTINUOUS
 62
     7
100
AcDbPolyline
 90
        4
 70
     1
 10
42.0
 20
202.5
 10
57.0
 20
202.5
 10
57.0
 20
218.25
 10
42.0
 20
218.25
  0
LWPOLYLINE
  5
37
102
{ACAD_REACTORS
330
31
102
}
100
AcDbEntity
  8
0
  6
CONTINUOUS
 62
     7
100
AcDbPolyline
 90
        4
 70
     1
 10
43.5
 20
212.097656
 10
47.0
 20
212.097656
 10
47.0
 20
216.527344
 10
43.5
 20
216.527344
  0
LWPOLYLINE
  5
38
102
{ACAD_REACTORS
330
31
102
}
100
AcDbEntity
  8
0
  6
CONTINUOUS
 62
     7
100
AcDbPolyline
 90
        4
 70
     1
 10
48.0
 20
212.097656
 10
51.5
 20
212.097656
 10
51.5
 20
216.527344
 10
48.0
 20
216.527344
  0
LWPOLYLINE
  5
39
102
{ACAD_REACTORS
330
31
102
}
100
AcDbEntity
  8
0
  6
CONTINUOUS
 62
     7
100
AcDbPolyline
 90
        4
 70
     1
 10
52.5
 20
212.097656
 10
56.0
 20
212.097656
 10
56.0
 20
216.527344
 10
52.5
 20
216.527344
  0
LINE
  5
3A
102
{ACAD_REACTORS
330
31
102
}
100
AcDbEntity
  8
0
  6
CONTINUOUS
 62
     7
100
AcDbLine
 10
42.128629
 20
210.927973
 30
0.0
 11
56.930441
 21
210.927973
 31
0.0
  0
LINE
  5
3B
102
{ACAD_REACTORS
330
31
102
}
100
AcDbEntity
  8
0
  6
CONTINUOUS
 62
     7
100
AcDbLine
 10
42.0
 20
209.636719
 30
0.0
 11
56.801812
 21
209.636719
 31
0.0
  0
ELLIPSE
  5
3C
102
{ACAD_REACTORS
330
31
102
}
100
AcDbEntity
  8
0
  6
CONTINUOUS
 62
     7
100
AcDbEllipse
 10
45.0
 20
206.4375
 30
0.0
 11
1.7500000000000073
 21
0.0
 31
0.0
210
0.0
220
0.0
230
1.0
 40
0.984375
 41
0.0
 42
6.2831853071796004
  0
LINE
  5
3D
102
{ACAD_REACTORS
330
31
102
}
100
AcDbEntity
  8
0
  6
CONTINUOUS
 62
     7
100
AcDbLine
 10
43.5
 20
207.421875
 30
0.0
 11
45.974874
 21
204.985671
 31
0.0
  0
LINE
  5
3E
102
{ACAD_REACTORS
330
31
102
}
100
AcDbEntity
  8
0
  6
CONTINUOUS
 62
     7
100
AcDbLine
 10
44.224745
 20
207.914062
 30
0.0
 11
46.699619
 21
205.477859
 31
0.0
  0
ELLIPSE
  5
3F
102
{ACAD_REACTORS
330
31
102
}
100
AcDbEntity
  8
0
  6
CONTINUOUS
 62
     7
100
AcDbEllipse
 10
49.5
 20
206.4375
 30
0.0
 11
1.7500000000000073
 21
0.0
 31
0.0
210
0.0
220
0.0
230
1.0
 40
0.984375
 41
0.0
 42
6.2831853071796004
  0
LINE
  5
40
102
{ACAD_REACTORS
330
31
102
}
100
AcDbEntity
  8
0
  6
CONTINUOUS
 62
     7
100
AcDbLine
 10
48.0
 20
207.421875
 30
0.0
 11
50.474874
 21
204.985671
 31
0.0
  0
LINE
  5
41
102
{ACAD_REACTORS
330
31
102
}
100
AcDbEntity
  8
0
  6
CONTINUOUS
 62
     7
100
AcDbLine
 10
48.724745
 20
207.914062
 30
0.0
 11
51.199619
 21
205.477859
 31
0.0
  0
ELLIPSE
  5
42
102
{ACAD_REACTORS
330
31
102
}
100
AcDbEntity
  8
0
  6
CONTINUOUS
 62
     7
100
AcDbEllipse
 10
54.25
 20
206.4375
 30
0.0
 11
1.7500000000000073
 21
0.0
 31
0.0
210
0.0
220
0.0
230
1.0
 40
0.984375
 41
0.0
 42
6.2831853071796004
  0
LINE
  5
43
102
{ACAD_REACTORS
330
31
102
}
100
AcDbEntity
  8
0
  6
CONTINUOUS
 62
     7
100
AcDbLine
 10
52.75
 20
207.421875
 30
0.0
 11
55.224874
 21
204.985671
 31
0.0
  0
LINE
  5
44
102
{ACAD_REACTORS
330
31
102
}
100
AcDbEntity
  8
0
  6
CONTINUOUS
 62
     7
100
AcDbLine
 10
53.474745
 20
207.914062
 30
0.0
 11
55.949619
 21
205.477859
 31
0.0
  0
LWPOLYLINE
  5
45
102
{ACAD_REACTORS
330
31
102
}
100
AcDbEntity
  8
0
  6
CONTINUOUS
 62
     7
100
AcDbPolyline
 90
        4
 70
     1
 10
39.75
 20
202.25
 10
144.75
 20
202.25
 10
144.75
 20
218.25
 10
39.75
 20
218.25
  0
LWPOLYLINE
  5
46
102
{ACAD_REACTORS
330
31
102
}
100
AcDbEntity
  8
0
  6
CONTINUOUS
 62
     7
100
AcDbPolyline
 90
        4
 70
     1
 10
58.0
 20
202.375
 10
73.0
 20
202.375
 10
73.0
 20
218.125
 10
58.0
 20
218.125
  0
LWPOLYLINE
  5
47
102
{ACAD_REACTORS
330
31
102
}
100
AcDbEntity
  8
0
  6
CONTINUOUS
 62
     7
100
AcDbPolyline
 90
        4
 70
     1
 10
59.5
 20
211.972656
 10
63.0
 20
211.972656
 10
63.0
 20
216.402344
 10
59.5
 20
216.402344
  0
LWPOLYLINE
  5
48
102
{ACAD_REACTORS
330
31
102
}
100
AcDbEntity
  8
0
  6
CONTINUOUS
 62
     7
100
AcDbPolyline
 90
        4
 70
     1
 10
64.0
 20
211.972656
 10
67.5
 20
211.972656
 10
67.5
 20
216.402344
 10
64.0
 20
216.402344
  0
LWPOLYLINE
  5
49
102
{ACAD_REACTORS
330
31
102
}
100
AcDbEntity
  8
0
  6
CONTINUOUS
 62
     7
100
AcDbPolyline
 90
        4
 70
     1
 10
68.5
 20
211.972656
 10
72.0
 20
211.972656
 10
72.0
 20
216.402344
 10
68.5
 20
216.402344
  0
LINE
  5
4A
102
{ACAD_REACTORS
330
31
102
}
100
AcDbEntity
  8
0
  6
CONTINUOUS
 62
     7
100
AcDbLine
 10
58.128629
 20
210.802973
 30
0.0
 11
72.930441
 21
210.802973
 31
0.0
  0
LINE
  5
4B
102
{ACAD_REACTORS
330
31
102
}
100
AcDbEntity
  8
0
  6
CONTINUOUS
 62
     7
100
AcDbLine
 10
58.0
 20
209.511719
 30
0.0
 11
72.801812
 21
209.511719
 31
0.0
  0
ELLIPSE
  5
4C
102
{ACAD_REACTORS
330
31
102
}
100
AcDbEntity
  8
0
  6
CONTINUOUS
 62
     7
100
AcDbEllipse
 10
61.0
 20
206.3125
 30
0.0
 11
1.7500000000000073
 21
0.0
 31
0.0
210
0.0
220
0.0
230
1.0
 40
0.984375
 41
0.0
 42
6.2831853071796004
  0
LINE
  5
4D
102
{ACAD_REACTORS
330
31
102
}
100
AcDbEntity
  8
0
  6
CONTINUOUS
 62
     7
100
AcDbLine
 10
59.5
 20
207.296875
 30
0.0
 11
61.974874
 21
204.860671
 31
0.0
  0
LINE
  5
4E
102
{ACAD_REACTORS
330
31
102
}
100
AcDbEntity
  8
0
  6
CONTINUOUS
 62
     7
100
AcDbLine
 10
60.224745
 20
207.789062
 30
0.0
 11
62.699619
 21
205.352859
 31
0.0
  0
ELLIPSE
  5
4F
102
{ACAD_REACTORS
330
31
102
}
100
AcDbEntity
  8
0
  6
CONTINUOUS
 62
     7
100
AcDbEllipse
 10
65.5
 20
206.3125
 30
0.0
 11
1.7500000000000073
 21
0.0
 31
0.0
210
0.0
220
0.0
230
1.0
 40
0.984375
 41
0.0
 42
6.2831853071796004
  0
LINE
  5
50
102
{ACAD_REACTORS
330
31
102
}
100
AcDbEntity
  8
0
  6
CONTINUOUS
 62
     7
100
AcDbLine
 10
64.0
 20
207.296875
 30
0.0
 11
66.474874
 21
204.860671
 31
0.0
  0
LINE
  5
51
102
{ACAD_REACTORS
330
31
102
}
100
AcDbEntity
  8
0
  6
CONTINUOUS
 62
     7
100
AcDbLine
 10
64.724745
 20
207.789062
 30
0.0
 11
67.199619
 21
205.352859
 31
0.0
  0
ELLIPSE
  5
52
102
{ACAD_REACTORS
330
31
102
}
100
AcDbEntity
  8
0
  6
CONTINUOUS
 62
     7
100
AcDbEllipse
 10
70.25
 20
206.3125
 30
0.0
 11
1.7500000000000073
 21
0.0
 31
0.0
210
0.0
220
0.0
230
1.0
 40
0.984375
 41
0.0
 42
6.2831853071796004
  0
LINE
  5
53
102
{ACAD_REACTORS
330
31
102
}
100
AcDbEntity
  8
0
  6
CONTINUOUS
 62
     7
100
AcDbLine
 10
68.75
 20
207.296875
 30
0.0
 11
71.224874
 21
204.860671
 31
0.0
  0
LINE
  5
54
102
{ACAD_REACTORS
330
31
102
}
100
AcDbEntity
  8
0
  6
CONTINUOUS
 62
     7
100
AcDbLine
 10
69.474745
 20
207.789062
 30
0.0
 11
71.949619
 21
205.352859
 31
0.0
  0
LWPOLYLINE
  5
55
102
{ACAD_REACTORS
330
31
102
}
100
AcDbEntity
  8
0
  6
CONTINUOUS
 62
     7
100
AcDbPolyline
 90
        4
 70
     1
 10
112.5
 20
202.375
 10
127.5
 20
202.375
 10
127.5
 20
218.125
 10
112.5
 20
218.125
  0
LWPOLYLINE
  5
56
102
{ACAD_REACTORS
330
31
102
}
100
AcDbEntity
  8
0
  6
CONTINUOUS
 62
     7
100
AcDbPolyline
 90
        4
 70
     1
 10
114.0
 20
211.972656
 10
117.5
 20
211.972656
 10
117.5
 20
216.402344
 10
114.0
 20
216.402344
  0
LWPOLYLINE
  5
57
102
{ACAD_REACTORS
330
31
102
}
100
AcDbEntity
  8
0
  6
CONTINUOUS
 62
     7
100
AcDbPolyline
 90
        4
 70
     1
 10
118.5
 20
211.972656
 10
122.0
 20
211.972656
 10
122.0
 20
216.402344
 10
118.5
 20
216.402344
  0
LWPOLYLINE
  5
58
102
{ACAD_REACTORS
330
31
102
}
100
AcDbEntity
  8
0
  6
CONTINUOUS
 62
     7
100
AcDbPolyline
 90
        4
 70
     1
 10
123.0
 20
211.972656
 10
126.5
 20
211.972656
 10
126.5
 20
216.402344
 10
123.0
 20
216.402344
  0
LINE
  5
59
102
{ACAD_REACTORS
330
31
102
}
100
AcDbEntity
  8
0
  6
CONTINUOUS
 62
     7
100
AcDbLine
 10
112.628629
 20
210.802973
 30
0.0
 11
127.430441
 21
210.802973
 31
0.0
  0
LINE
  5
5A
102
{ACAD_REACTORS
330
31
102
}
100
AcDbEntity
  8
0
  6
CONTINUOUS
 62
     7
100
AcDbLine
 10
112.5
 20
209.511719
 30
0.0
 11
127.301812
 21
209.511719
 31
0.0
  0
ELLIPSE
  5
5B
102
{ACAD_REACTORS
330
31
102
}
100
AcDbEntity
  8
0
  6
CONTINUOUS
 62
     7
100
AcDbEllipse
 10
115.5
 20
206.3125
 30
0.0
 11
1.7500000000000073
 21
0.0
 31
0.0
210
0.0
220
0.0
230
1.0
 40
0.984375
 41
0.0
 42
6.2831853071796004
  0
LINE
  5
5C
102
{ACAD_REACTORS
330
31
102
}
100
AcDbEntity
  8
0
  6
CONTINUOUS
 62
     7
100
AcDbLine
 10
114.0
 20
207.296875
 30
0.0
 11
116.474874
 21
204.860671
 31
0.0
  0
LINE
  5
5D
102
{ACAD_REACTORS
330
31
102
}
100
AcDbEntity
  8
0
  6
CONTINUOUS
 62
     7
100
AcDbLine
 10
114.724745
 20
207.789062
 30
0.0
 11
117.199619
 21
205.352859
 31
0.0
  0
ELLIPSE
  5
5E
102
{ACAD_REACTORS
330
31
102
}
100
AcDbEntity
  8
0
  6
CONTINUOUS
 62
     7
100
AcDbEllipse
 10
120.0
 20
206.3125
 30
0.0
 11
1.7500000000000073
 21
0.0
 31
0.0
210
0.0
220
0.0
230
1.0
 40
0.984375
 41
0.0
 42
6.2831853071796004
  0
LINE
  5
5F
102
{ACAD_REACTORS
330
31
102
}
100
AcDbEntity
  8
0
  6
CONTINUOUS
 62
     7
100
AcDbLine
 10
118.5
 20
207.296875
 30
0.0
 11
120.974874
 21
204.860671
 31
0.0
  0
LINE
  5
60
102
{ACAD_REACTORS
330
31
102
}
100
AcDbEntity
  8
0
  6
CONTINUOUS
 62
     7
100
AcDbLine
 10
119.224745
 20
207.789062
 30
0.0
 11
121.699619
 21
205.352859
 31
0.0
  0
ELLIPSE
  5
61
102
{ACAD_REACTORS
330
31
102
}
100
AcDbEntity
  8
0
  6
CONTINUOUS
 62
     7
100
AcDbEllipse
 10
124.75
 20
206.3125
 30
0.0
 11
1.7500000000000073
 21
0.0
 31
0.0
210
0.0
220
0.0
230
1.0
 40
0.984375
 41
0.0
 42
6.2831853071796004
  0
LINE
  5
62
102
{ACAD_REACTORS
330
31
102
}
100
AcDbEntity
  8
0
  6
CONTINUOUS
 62
     7
100
AcDbLine
 10
123.25
 20
207.296875
 30
0.0
 11
125.724874
 21
204.860671
 31
0.0
  0
LINE
  5
63
102
{ACAD_REACTORS
330
31
102
}
100
AcDbEntity
  8
0
  6
CONTINUOUS
 62
     7
100
AcDbLine
 10
123.974745
 20
207.789062
 30
0.0
 11
126.449619
 21
205.352859
 31
0.0
  0
LWPOLYLINE
  5
64
102
{ACAD_REACTORS
330
31
102
}
100
AcDbEntity
  8
0
  6
CONTINUOUS
 62
     7
100
AcDbPolyline
 90
        4
 70
     1
 10
128.5
 20
202.375
 10
143.5
 20
202.375
 10
143.5
 20
218.125
 10
128.5
 20
218.125
  0
LWPOLYLINE
  5
65
102
{ACAD_REACTORS
330
31
102
}
100
AcDbEntity
  8
0
  6
CONTINUOUS
 62
     7
100
AcDbPolyline
 90
        4
 70
     1
 10
130.0
 20
211.972656
 10
133.5
 20
211.972656
 10
133.5
 20
216.402344
 10
130.0
 20
216.402344
  0
LWPOLYLINE
  5
66
102
{ACAD_REACTORS
330
31
102
}
100
AcDbEntity
  8
0
  6
CONTINUOUS
 62
     7
100
AcDbPolyline
 90
        4
 70
     1
 10
134.5
 20
211.972656
 10
138.0
 20
211.972656
 10
138.0
 20
216.402344
 10
134.5
 20
216.402344
  0
LWPOLYLINE
  5
67
102
{ACAD_REACTORS
330
31
102
}
100
AcDbEntity
  8
0
  6
CONTINUOUS
 62
     7
100
AcDbPolyline
 90
        4
 70
     1
 10
139.0
 20
211.972656
 10
142.5
 20
211.972656
 10
142.5
 20
216.402344
 10
139.0
 20
216.402344
  0
LINE
  5
68
102
{ACAD_REACTORS
330
31
102
}
100
AcDbEntity
  8
0
  6
CONTINUOUS
 62
     7
100
AcDbLine
 10
128.628629
 20
210.802973
 30
0.0
 11
143.430441
 21
210.802973
 31
0.0
  0
LINE
  5
69
102
{ACAD_REACTORS
330
31
102
}
100
AcDbEntity
  8
0
  6
CONTINUOUS
 62
     7
100
AcDbLine
 10
128.5
 20
209.511719
 30
0.0
 11
143.301812
 21
209.511719
 31
0.0
  0
ELLIPSE
  5
6A
102
{ACAD_REACTORS
330
31
102
}
100
AcDbEntity
  8
0
  6
CONTINUOUS
 62
     7
100
AcDbEllipse
 10
131.5
 20
206.3125
 30
0.0
 11
1.7500000000000073
 21
0.0
 31
0.0
210
0.0
220
0.0
230
1.0
 40
0.984375
 41
0.0
 42
6.2831853071796004
  0
LINE
  5
6B
102
{ACAD_REACTORS
330
31
102
}
100
AcDbEntity
  8
0
  6
CONTINUOUS
 62
     7
100
AcDbLine
 10
130.0
 20
207.296875
 30
0.0
 11
132.474874
 21
204.860671
 31
0.0
  0
LINE
  5
6C
102
{ACAD_REACTORS
330
31
102
}
100
AcDbEntity
  8
0
  6
CONTINUOUS
 62
     7
100
AcDbLine
 10
130.724745
 20
207.789062
 30
0.0
 11
133.199619
 21
205.352859
 31
0.0
  0
ELLIPSE
  5
6D
102
{ACAD_REACTORS
330
31
102
}
100
AcDbEntity
  8
0
  6
CONTINUOUS
 62
     7
100
AcDbEllipse
 10
136.0
 20
206.3125
 30
0.0
 11
1.7500000000000073
 21
0.0
 31
0.0
210
0.0
220
0.0
230
1.0
 40
0.984375
 41
0.0
 42
6.2831853071796004
  0
LINE
  5
6E
102
{ACAD_REACTORS
330
31
102
}
100
AcDbEntity
  8
0
  6
CONTINUOUS
 62
     7
100
AcDbLine
 10
134.5
 20
207.296875
 30
0.0
 11
136.974874
 21
204.860671
 31
0.0
  0
LINE
  5
6F
102
{ACAD_REACTORS
330
31
102
}
100
AcDbEntity
  8
0
  6
CONTINUOUS
 62
     7
100
AcDbLine
 10
135.224745
 20
207.789062
 30
0.0
 11
137.699619
 21
205.352859
 31
0.0
  0
ELLIPSE
  5
70
102
{ACAD_REACTORS
330
31
102
}
100
AcDbEntity
  8
0
  6
CONTINUOUS
 62
     7
100
AcDbEllipse
 10
140.75
 20
206.3125
 30
0.0
 11
1.7500000000000073
 21
0.0
 31
0.0
210
0.0
220
0.0
230
1.0
 40
0.984375
 41
0.0
 42
6.2831853071796004
  0
LINE
  5
71
102
{ACAD_REACTORS
330
31
102
}
100
AcDbEntity
  8
0
  6
CONTINUOUS
 62
     7
100
AcDbLine
 10
139.25
 20
207.296875
 30
0.0
 11
141.724874
 21
204.860671
 31
0.0
  0
LINE
  5
72
102
{ACAD_REACTORS
330
31
102
}
100
AcDbEntity
  8
0
  6
CONTINUOUS
 62
     7
100
AcDbLine
 10
139.974745
 20
207.789062
 30
0.0
 11
142.449619
 21
205.352859
 31
0.0
  0
LWPOLYLINE
  5
73
102
{ACAD_REACTORS
330
31
102
}
100
AcDbEntity
  8
0
  6
CONTINUOUS
 62
     7
100
AcDbPolyline
 90
        4
 70
     1
 10
74.5
 20
203.0
 10
111.5
 20
203.0
 10
111.5
 20
217.25
 10
74.5
 20
217.25
  0
LWPOLYLINE
  5
74
102
{ACAD_REACTORS
330
31
102
}
100
AcDbEntity
  8
0
  6
CONTINUOUS
 62
     7
100
AcDbPolyline
 90
        4
 70
     1
 10
50.25
 20
187.25
 10
54.25
 20
187.25
 10
54.25
 20
189.25
 10
50.25
 20
189.25
  0
LWPOLYLINE
  5
75
102
{ACAD_REACTORS
330
31
102
}
100
AcDbEntity
  8
0
  6
CONTINUOUS
 62
     7
100
AcDbPolyline
 90
        4
 70
     1
 10
45.0
 20
187.25
 10
49.0
 20
187.25
 10
49.0
 20
189.25
 10
45.0
 20
189.25
  0
LWPOLYLINE
  5
76
102
{ACAD_REACTORS
330
31
102
}
100
AcDbEntity
  8
0
  6
CONTINUOUS
 62
     7
100
AcDbPolyline
 90
        4
 70
     1
 10
42.25
 20
174.0
 10
56.75
 20
174.0
 10
56.75
 20
190.75
 10
42.25
 20
190.75
  0
LWPOLYLINE
  5
77
102
{ACAD_REACTORS
330
31
102
}
100
AcDbEntity
  8
0
  6
CONTINUOUS
 62
     7
100
AcDbPolyline
 90
        4
 70
     1
 10
42.5
 20
173.5
 10
56.5
 20
173.5
 10
56.5
 20
188.5
 10
42.5
 20
188.5
  0
LWPOLYLINE
  5
78
102
{ACAD_REACTORS
330
31
102
}
100
AcDbEntity
  8
0
  6
CONTINUOUS
 62
     7
100
AcDbPolyline
 90
        4
 70
     1
 10
43.375
 20
185.5
 10
47.035377
 20
185.5
 10
47.035377
 20
187.5
 10
43.375
 20
187.5
  0
LWPOLYLINE
  5
79
102
{ACAD_REACTORS
330
31
102
}
100
AcDbEntity
  8
0
  6
CONTINUOUS
 62
     7
100
AcDbPolyline
 90
        4
 70
     1
 10
51.839623
 20
185.5
 10
55.5
 20
185.5
 10
55.5
 20
187.5
 10
51.839623
 20
187.5
  0
LWPOLYLINE
  5
7A
102
{ACAD_REACTORS
330
31
102
}
100
AcDbEntity
  8
0
  6
CONTINUOUS
 62
     7
100
AcDbPolyline
 90
        4
 70
     1
 10
66.0
 20
187.25
 10
70.0
 20
187.25
 10
70.0
 20
189.25
 10
66.0
 20
189.25
  0
LWPOLYLINE
  5
7B
102
{ACAD_REACTORS
330
31
102
}
100
AcDbEntity
  8
0
  6
CONTINUOUS
 62
     7
100
AcDbPolyline
 90
        4
 70
     1
 10
60.75
 20
187.25
 10
64.75
 20
187.25
 10
64.75
 20
189.25
 10
60.75
 20
189.25
  0
LWPOLYLINE
  5
7C
102
{ACAD_REACTORS
330
31
102
}
100
AcDbEntity
  8
0
  6
CONTINUOUS
 62
     7
100
AcDbPolyline
 90
        4
 70
     1
 10
58.0
 20
174.0
 10
72.5
 20
174.0
 10
72.5
 20
190.75
 10
58.0
 20
190.75
  0
LWPOLYLINE
  5
7D
102
{ACAD_REACTORS
330
31
102
}
100
AcDbEntity
  8
0
  6
CONTINUOUS
 62
     7
100
AcDbPolyline
 90
        4
 70
     1
 10
58.25
 20
173.5
 10
72.25
 20
173.5
 10
72.25
 20
188.5
 10
58.25
 20
188.5
  0
LWPOLYLINE
  5
7E
102
{ACAD_REACTORS
330
31
102
}
100
AcDbEntity
  8
0
  6
CONTINUOUS
 62
     7
100
AcDbPolyline
 90
        4
 70
     1
 10
59.125
 20
185.5
 10
62.785377
 20
185.5
 10
62.785377
 20
187.5
 10
59.125
 20
187.5
  0
LWPOLYLINE
  5
7F
102
{ACAD_REACTORS
330
31
102
}
100
AcDbEntity
  8
0
  6
CONTINUOUS
 62
     7
100
AcDbPolyline
 90
        4
 70
     1
 10
67.589623
 20
185.5
 10
71.25
 20
185.5
 10
71.25
 20
187.5
 10
67.589623
 20
187.5
  0
LWPOLYLINE
  5
80
102
{ACAD_REACTORS
330
31
102
}
100
AcDbEntity
  8
0
  6
CONTINUOUS
 62
     7
100
AcDbPolyline
 90
        4
 70
     1
 10
120.75
 20
186.75
 10
124.75
 20
186.75
 10
124.75
 20
188.75
 10
120.75
 20
188.75
  0
LWPOLYLINE
  5
81
102
{ACAD_REACTORS
330
31
102
}
100
AcDbEntity
  8
0
  6
CONTINUOUS
 62
     7
100
AcDbPolyline
 90
        4
 70
     1
 10
115.5
 20
186.75
 10
119.5
 20
186.75
 10
119.5
 20
188.75
 10
115.5
 20
188.75
  0
LWPOLYLINE
  5
82
102
{ACAD_REACTORS
330
31
102
}
100
AcDbEntity
  8
0
  6
CONTINUOUS
 62
     7
100
AcDbPolyline
 90
        4
 70
     1
 10
112.75
 20
173.5
 10
127.25
 20
173.5
 10
127.25
 20
190.25
 10
112.75
 20
190.25
  0
LWPOLYLINE
  5
83
102
{ACAD_REACTORS
330
31
102
}
100
AcDbEntity
  8
0
  6
CONTINUOUS
 62
     7
100
AcDbPolyline
 90
        4
 70
     1
 10
113.0
 20
173.0
 10
127.0
 20
173.0
 10
127.0
 20
188.0
 10
113.0
 20
188.0
  0
LWPOLYLINE
  5
84
102
{ACAD_REACTORS
330
31
102
}
100
AcDbEntity
  8
0
  6
CONTINUOUS
 62
     7
100
AcDbPolyline
 90
        4
 70
     1
 10
113.875
 20
185.0
 10
117.535377
 20
185.0
 10
117.535377
 20
187.0
 10
113.875
 20
187.0
  0
LWPOLYLINE
  5
85
102
{ACAD_REACTORS
330
31
102
}
100
AcDbEntity
  8
0
  6
CONTINUOUS
 62
     7
100
AcDbPolyline
 90
        4
 70
     1
 10
122.339623
 20
185.0
 10
126.0
 20
185.0
 10
126.0
 20
187.0
 10
122.339623
 20
187.0
  0
LWPOLYLINE
  5
86
102
{ACAD_REACTORS
330
31
102
}
100
AcDbEntity
  8
0
  6
CONTINUOUS
 62
     7
100
AcDbPolyline
 90
        4
 70
     1
 10
136.5
 20
186.75
 10
140.5
 20
186.75
 10
140.5
 20
188.75
 10
136.5
 20
188.75
  0
LWPOLYLINE
  5
87
102
{ACAD_REACTORS
330
31
102
}
100
AcDbEntity
  8
0
  6
CONTINUOUS
 62
     7
100
AcDbPolyline
 90
        4
 70
     1
 10
131.25
 20
186.75
 10
135.25
 20
186.75
 10
135.25
 20
188.75
 10
131.25
 20
188.75
  0
LWPOLYLINE
  5
88
102
{ACAD_REACTORS
330
31
102
}
100
AcDbEntity
  8
0
  6
CONTINUOUS
 62
     7
100
AcDbPolyline
 90
        4
 70
     1
 10
128.5
 20
173.5
 10
143.0
 20
173.5
 10
143.0
 20
190.25
 10
128.5
 20
190.25
  0
LWPOLYLINE
  5
89
102
{ACAD_REACTORS
330
31
102
}
100
AcDbEntity
  8
0
  6
CONTINUOUS
 62
     7
100
AcDbPolyline
 90
        4
 70
     1
 10
128.75
 20
173.0
 10
142.75
 20
173.0
 10
142.75
 20
188.0
 10
128.75
 20
188.0
  0
LWPOLYLINE
  5
8A
102
{ACAD_REACTORS
330
31
102
}
100
AcDbEntity
  8
0
  6
CONTINUOUS
 62
     7
100
AcDbPolyline
 90
        4
 70
     1
 10
129.625
 20
185.0
 10
133.285377
 20
185.0
 10
133.285377
 20
187.0
 10
129.625
 20
187.0
  0
LWPOLYLINE
  5
8B
102
{ACAD_REACTORS
330
31
102
}
100
AcDbEntity
  8
0
  6
CONTINUOUS
 62
     7
100
AcDbPolyline
 90
        4
 70
     1
 10
138.089623
 20
185.0
 10
141.75
 20
185.0
 10
141.75
 20
187.0
 10
138.089623
 20
187.0
  0
LWPOLYLINE
  5
8C
102
{ACAD_REACTORS
330
31
102
}
100
AcDbEntity
  8
0
  6
CONTINUOUS
 62
     7
100
AcDbPolyline
 90
        4
 70
     1
 10
74.0
 20
91.0
 10
108.5
 20
91.0
 10
108.5
 20
158.0
 10
74.0
 20
158.0
  0
LWPOLYLINE
  5
8D
102
{ACAD_REACTORS
330
31
102
}
100
AcDbEntity
  8
0
  6
CONTINUOUS
 62
     7
100
AcDbPolyline
 90
        4
 70
     1
 10
43.5
 20
83.75
 10
51.5
 20
83.75
 10
51.5
 20
85.75
 10
43.5
 20
85.75
  0
LWPOLYLINE
  5
8E
102
{ACAD_REACTORS
330
31
102
}
100
AcDbEntity
  8
0
  6
CONTINUOUS
 62
     7
100
AcDbPolyline
 90
        5
 70
     0
 10
84.651832
 20
155.25
 10
75.0
 20
145.593629
 10
80.570386
 20
140.020623
 10
81.656436
 20
141.107184
 10
79.97481
 20
142.807126
  0
LWPOLYLINE
  5
8F
102
{ACAD_REACTORS
330
31
102
}
100
AcDbEntity
  8
0
  6
CONTINUOUS
 62
     7
100
AcDbPolyline
 90
       19
 70
     0
 10
79.97481
 20
142.807126
 10
80.587903
 20
143.420507
 10
82.287046
 20
141.73809
 10
83.390613
 20
142.824651
 10
81.69147
 20
144.524593
 10
82.304563
 20
145.137974
 10
84.003706
 20
143.455557
 10
85.107273
 20
144.559643
 10
80.990793
 20
148.660534
 10
82.09436
 20
149.76462
 10
86.193323
 20
145.646204
 10
87.664746
 20
147.118319
 10
83.530748
 20
151.25426
 10
84.616799
 20
152.340821
 10
88.750796
 20
148.20488
 10
90.95793
 20
150.413052
 10
89.486507
 20
151.867641
 42
0.183743
 10
88.750796
 20
151.131584
 10
84.651832
 20
155.25
  0
LWPOLYLINE
  5
90
102
{ACAD_REACTORS
330
31
102
}
100
AcDbEntity
  8
0
  6
CONTINUOUS
 62
     7
100
AcDbPolyline
 90
        5
 70
     0
 10
76.672868
 20
162.364688
 10
67.021035
 20
152.708317
 10
72.591421
 20
147.135312
 10
73.677471
 20
148.221872
 10
71.995845
 20
149.921814
  0
LWPOLYLINE
  5
91
102
{ACAD_REACTORS
330
31
102
}
100
AcDbEntity
  8
0
  6
CONTINUOUS
 62
     7
100
AcDbPolyline
 90
       19
 70
     0
 10
71.995845
 20
149.921814
 10
72.608938
 20
150.535195
 10
74.308081
 20
148.852779
 10
75.411648
 20
149.93934
 10
73.712505
 20
151.639281
 10
74.325598
 20
152.252663
 10
76.024741
 20
150.570246
 10
77.128308
 20
151.674332
 10
73.011828
 20
155.775223
 10
74.115395
 20
156.879309
 10
78.214358
 20
152.760893
 10
79.685781
 20
154.233007
 10
75.551784
 20
158.368949
 10
76.637834
 20
159.455509
 10
80.771831
 20
155.319568
 10
82.978965
 20
157.52774
 10
81.507542
 20
158.98233
 42
0.183743
 10
80.771831
 20
158.246272
 10
76.672868
 20
162.364688
  0
LWPOLYLINE
  5
92
102
{ACAD_REACTORS
330
31
102
}
100
AcDbEntity
  8
0
  6
CONTINUOUS
 62
     7
100
AcDbPolyline
 90
        5
 70
     0
 10
73.443903
 20
143.979377
 10
63.79207
 20
134.323006
 10
69.362456
 20
128.75
 10
70.448506
 20
129.836561
 10
68.76688
 20
131.536503
  0
LWPOLYLINE
  5
93
102
{ACAD_REACTORS
330
31
102
}
100
AcDbEntity
  8
0
  6
CONTINUOUS
 62
     7
100
AcDbPolyline
 90
       19
 70
     0
 10
68.76688
 20
131.536503
 10
69.379973
 20
132.149884
 10
71.079116
 20
130.467467
 10
72.182683
 20
131.554028
 10
70.48354
 20
133.25397
 10
71.096633
 20
133.867351
 10
72.795776
 20
132.184934
 10
73.899343
 20
133.28902
 10
69.782863
 20
137.389911
 10
70.88643
 20
138.493997
 10
74.985393
 20
134.375581
 10
76.456816
 20
135.847696
 10
72.322819
 20
139.983637
 10
73.408869
 20
141.070198
 10
77.542866
 20
136.934257
 10
79.75
 20
139.142429
 10
78.278577
 20
140.597018
 42
0.183743
 10
77.542866
 20
139.860961
 10
73.443903
 20
143.979377
  0
LWPOLYLINE
  5
94
102
{ACAD_REACTORS
330
31
102
}
100
AcDbEntity
  8
0
  6
CONTINUOUS
 62
     7
100
AcDbPolyline
 90
        5
 70
     0
 10
80.172868
 20
134.864688
 10
70.521035
 20
125.208317
 10
76.091421
 20
119.635312
 10
77.177471
 20
120.721872
 10
75.495845
 20
122.421814
  0
LWPOLYLINE
  5
95
102
{ACAD_REACTORS
330
31
102
}
100
AcDbEntity
  8
0
  6
CONTINUOUS
 62
     7
100
AcDbPolyline
 90
       19
 70
     0
 10
75.495845
 20
122.421814
 10
76.108938
 20
123.035195
 10
77.808081
 20
121.352779
 10
78.911648
 20
122.43934
 10
77.212505
 20
124.139281
 10
77.825598
 20
124.752663
 10
79.524741
 20
123.070246
 10
80.628308
 20
124.174332
 10
76.511828
 20
128.275223
 10
77.615395
 20
129.379309
 10
81.714358
 20
125.260893
 10
83.185781
 20
126.733007
 10
79.051784
 20
130.868949
 10
80.137834
 20
131.955509
 10
84.271831
 20
127.819568
 10
86.478965
 20
130.02774
 10
85.007542
 20
131.48233
 42
0.183743
 10
84.271831
 20
130.746272
 10
80.172868
 20
134.864688
  0
LWPOLYLINE
  5
96
102
{ACAD_REACTORS
330
31
102
}
100
AcDbEntity
  8
0
  6
CONTINUOUS
 62
     7
100
AcDbPolyline
 90
        5
 70
     0
 10
95.943903
 20
166.479377
 10
86.29207
 20
156.823006
 10
91.862456
 20
151.25
 10
92.948506
 20
152.336561
 10
91.26688
 20
154.036503
  0
LWPOLYLINE
  5
97
102
{ACAD_REACTORS
330
31
102
}
100
AcDbEntity
  8
0
  6
CONTINUOUS
 62
     7
100
AcDbPolyline
 90
       19
 70
     0
 10
91.26688
 20
154.036503
 10
91.879973
 20
154.649884
 10
93.579116
 20
152.967467
 10
94.682683
 20
154.054028
 10
92.98354
 20
155.75397
 10
93.596633
 20
156.367351
 10
95.295776
 20
154.684934
 10
96.399343
 20
155.78902
 10
92.282863
 20
159.889911
 10
93.38643
 20
160.993997
 10
97.485393
 20
156.875581
 10
98.956816
 20
158.347696
 10
94.822819
 20
162.483637
 10
95.908869
 20
163.570198
 10
100.042866
 20
159.434257
 10
102.25
 20
161.642429
 10
100.778577
 20
163.097018
 42
0.183743
 10
100.042866
 20
162.360961
 10
95.943903
 20
166.479377
  0
LWPOLYLINE
  5
98
102
{ACAD_REACTORS
330
31
102
}
100
AcDbEntity
  8
0
  6
CONTINUOUS
 62
     7
100
AcDbPolyline
 90
        5
 70
     0
 10
68.922868
 20
123.864688
 10
59.271035
 20
114.208317
 10
64.841421
 20
108.635312
 10
65.927471
 20
109.721872
 10
64.245845
 20
111.421814
  0
LWPOLYLINE
  5
99
102
{ACAD_REACTORS
330
31
102
}
100
AcDbEntity
  8
0
  6
CONTINUOUS
 62
     7
100
AcDbPolyline
 90
       19
 70
     0
 10
64.245845
 20
111.421814
 10
64.858938
 20
112.035195
 10
66.558081
 20
110.352779
 10
67.661648
 20
111.43934
 10
65.962505
 20
113.139281
 10
66.575598
 20
113.752663
 10
68.274741
 20
112.070246
 10
69.378308
 20
113.174332
 10
65.261828
 20
117.275223
 10
66.365395
 20
118.379309
 10
70.464358
 20
114.260893
 10
71.935781
 20
115.733007
 10
67.801784
 20
119.868949
 10
68.887834
 20
120.955509
 10
73.021831
 20
116.819568
 10
75.228965
 20
119.02774
 10
73.757542
 20
120.48233
 42
0.183743
 10
73.021831
 20
119.746272
 10
68.922868
 20
123.864688
  0
LWPOLYLINE
  5
9A
102
{ACAD_REACTORS
330
31
102
}
100
AcDbEntity
  8
0
  6
CONTINUOUS
 62
     7
100
AcDbPolyline
 90
        5
 70
     0
 10
91.401832
 20
146.229377
 10
81.75
 20
136.573006
 10
87.320386
 20
131.0
 10
88.406436
 20
132.086561
 10
86.72481
 20
133.786503
  0
LWPOLYLINE
  5
9B
102
{ACAD_REACTORS
330
31
102
}
100
AcDbEntity
  8
0
  6
CONTINUOUS
 62
     7
100
AcDbPolyline
 90
       19
 70
     0
 10
86.72481
 20
133.786503
 10
87.337903
 20
134.399884
 10
89.037046
 20
132.717467
 10
90.140613
 20
133.804028
 10
88.44147
 20
135.50397
 10
89.054563
 20
136.117351
 10
90.753706
 20
134.434934
 10
91.857273
 20
135.53902
 10
87.740793
 20
139.639911
 10
88.84436
 20
140.743997
 10
92.943323
 20
136.625581
 10
94.414746
 20
138.097696
 10
90.280748
 20
142.233637
 10
91.366799
 20
143.320198
 10
95.500796
 20
139.184257
 10
97.70793
 20
141.392429
 10
96.236507
 20
142.847018
 42
0.183743
 10
95.500796
 20
142.110961
 10
91.401832
 20
146.229377
  0
LWPOLYLINE
  5
9C
102
{ACAD_REACTORS
330
31
102
}
100
AcDbEntity
  8
0
  6
CONTINUOUS
 62
     7
100
AcDbPolyline
 90
        5
 70
     0
 10
102.443903
 20
157.5
 10
92.79207
 20
147.843629
 10
98.362456
 20
142.270623
 10
99.448506
 20
143.357184
 10
97.76688
 20
145.057126
  0
LWPOLYLINE
  5
9D
102
{ACAD_REACTORS
330
31
102
}
100
AcDbEntity
  8
0
  6
CONTINUOUS
 62
     7
100
AcDbPolyline
 90
       19
 70
     0
 10
97.76688
 20
145.057126
 10
98.379973
 20
145.670507
 10
100.079116
 20
143.98809
 10
101.182683
 20
145.074651
 10
99.48354
 20
146.774593
 10
100.096633
 20
147.387974
 10
101.795776
 20
145.705557
 10
102.899343
 20
146.809643
 10
98.782863
 20
150.910534
 10
99.88643
 20
152.01462
 10
103.985393
 20
147.896204
 10
105.456816
 20
149.368319
 10
101.322819
 20
153.50426
 10
102.408869
 20
154.590821
 10
106.542866
 20
150.45488
 10
108.75
 20
152.663052
 10
107.278577
 20
154.117641
 42
0.183743
 10
106.542866
 20
153.381584
 10
102.443903
 20
157.5
  0
LWPOLYLINE
  5
9E
102
{ACAD_REACTORS
330
31
102
}
100
AcDbEntity
  8
0
  6
CONTINUOUS
 62
     7
100
AcDbPolyline
 90
        5
 70
     0
 10
113.401832
 20
168.864688
 10
103.75
 20
159.208317
 10
109.320386
 20
153.635312
 10
110.406436
 20
154.721872
 10
108.72481
 20
156.421814
  0
LWPOLYLINE
  5
9F
102
{ACAD_REACTORS
330
31
102
}
100
AcDbEntity
  8
0
  6
CONTINUOUS
 62
     7
100
AcDbPolyline
 90
       19
 70
     0
 10
108.72481
 20
156.421814
 10
109.337903
 20
157.035195
 10
111.037046
 20
155.352779
 10
112.140613
 20
156.43934
 10
110.44147
 20
158.139281
 10
111.054563
 20
158.752663
 10
112.753706
 20
157.070246
 10
113.857273
 20
158.174332
 10
109.740793
 20
162.275223
 10
110.84436
 20
163.379309
 10
114.943323
 20
159.260893
 10
116.414746
 20
160.733007
 10
112.280748
 20
164.868949
 10
113.366799
 20
165.955509
 10
117.500796
 20
161.819568
 10
119.70793
 20
164.02774
 10
118.236507
 20
165.48233
 42
0.183743
 10
117.500796
 20
164.746272
 10
113.401832
 20
168.864688
  0
LWPOLYLINE
  5
A0
102
{ACAD_REACTORS
330
31
102
}
100
AcDbEntity
  8
0
  6
CONTINUOUS
 62
     7
100
AcDbPolyline
 90
        5
 70
     0
 10
87.41235
 20
125.864688
 10
77.760518
 20
116.208317
 10
83.330904
 20
110.635312
 10
84.416954
 20
111.721872
 10
82.735328
 20
113.421814
  0
LWPOLYLINE
  5
A1
102
{ACAD_REACTORS
330
31
102
}
100
AcDbEntity
  8
0
  6
CONTINUOUS
 62
     7
100
AcDbPolyline
 90
       19
 70
     0
 10
82.735328
 20
113.421814
 10
83.348421
 20
114.035195
 10
85.047563
 20
112.352779
 10
86.15113
 20
113.43934
 10
84.451988
 20
115.139281
 10
85.06508
 20
115.752663
 10
86.764223
 20
114.070246
 10
87.86779
 20
115.174332
 10
83.75131
 20
119.275223
 10
84.854877
 20
120.379309
 10
88.95384
 20
116.260893
 10
90.425263
 20
117.733007
 10
86.291266
 20
121.868949
 10
87.377316
 20
122.955509
 10
91.511313
 20
118.819568
 10
93.718447
 20
121.02774
 10
92.247025
 20
122.48233
 42
0.183743
 10
91.511313
 20
121.746272
 10
87.41235
 20
125.864688
  0
LWPOLYLINE
  5
A2
102
{ACAD_REACTORS
330
31
102
}
100
AcDbEntity
  8
0
  6
CONTINUOUS
 62
     7
100
AcDbPolyline
 90
        5
 70
     0
 10
76.16235
 20
114.864688
 10
66.510518
 20
105.208317
 10
72.080904
 20
99.635312
 10
73.166954
 20
100.721872
 10
71.485328
 20
102.421814
  0
LWPOLYLINE
  5
A3
102
{ACAD_REACTORS
330
31
102
}
100
AcDbEntity
  8
0
  6
CONTINUOUS
 62
     7
100
AcDbPolyline
 90
       19
 70
     0
 10
71.485328
 20
102.421814
 10
72.098421
 20
103.035195
 10
73.797563
 20
101.352779
 10
74.90113
 20
102.43934
 10
73.201988
 20
104.139281
 10
73.81508
 20
104.752663
 10
75.514223
 20
103.070246
 10
76.61779
 20
104.174332
 10
72.50131
 20
108.275223
 10
73.604877
 20
109.379309
 10
77.70384
 20
105.260893
 10
79.175263
 20
106.733007
 10
75.041266
 20
110.868949
 10
76.127316
 20
111.955509
 10
80.261313
 20
107.819568
 10
82.468447
 20
110.02774
 10
80.997025
 20
111.48233
 42
0.183743
 10
80.261313
 20
110.746272
 10
76.16235
 20
114.864688
  0
LWPOLYLINE
  5
A4
102
{ACAD_REACTORS
330
31
102
}
100
AcDbEntity
  8
0
  6
CONTINUOUS
 62
     7
100
AcDbPolyline
 90
        5
 70
     0
 10
98.641315
 20
137.229377
 10
88.989482
 20
127.573006
 10
94.559869
 20
122.0
 10
95.645919
 20
123.086561
 10
93.964293
 20
124.786503
  0
LWPOLYLINE
  5
A5
102
{ACAD_REACTORS
330
31
102
}
100
AcDbEntity
  8
0
  6
CONTINUOUS
 62
     7
100
AcDbPolyline
 90
       19
 70
     0
 10
93.964293
 20
124.786503
 10
94.577385
 20
125.399884
 10
96.276528
 20
123.717467
 10
97.380095
 20
124.804028
 10
95.680952
 20
126.50397
 10
96.294045
 20
127.117351
 10
97.993188
 20
125.434934
 10
99.096755
 20
126.53902
 10
94.980275
 20
130.639911
 10
96.083842
 20
131.743997
 10
100.182805
 20
127.625581
 10
101.654228
 20
129.097696
 10
97.520231
 20
133.233637
 10
98.606281
 20
134.320198
 10
102.740278
 20
130.184257
 10
104.947412
 20
132.392429
 10
103.47599
 20
133.847018
 42
0.183743
 10
102.740278
 20
133.110961
 10
98.641315
 20
137.229377
  0
LWPOLYLINE
  5
A6
102
{ACAD_REACTORS
330
31
102
}
100
AcDbEntity
  8
0
  6
CONTINUOUS
 62
     7
100
AcDbPolyline
 90
        5
 70
     0
 10
109.683385
 20
148.5
 10
100.031553
 20
138.843629
 10
105.601939
 20
133.270623
 10
106.687989
 20
134.357184
 10
105.006363
 20
136.057126
  0
LWPOLYLINE
  5
A7
102
{ACAD_REACTORS
330
31
102
}
100
AcDbEntity
  8
0
  6
CONTINUOUS
 62
     7
100
AcDbPolyline
 90
       19
 70
     0
 10
105.006363
 20
136.057126
 10
105.619456
 20
136.670507
 10
107.318599
 20
134.98809
 10
108.422166
 20
136.074651
 10
106.723023
 20
137.774593
 10
107.336115
 20
138.387974
 10
109.035258
 20
136.705557
 10
110.138825
 20
137.809643
 10
106.022345
 20
141.910534
 10
107.125912
 20
143.01462
 10
111.224876
 20
138.896204
 10
112.696298
 20
140.368319
 10
108.562301
 20
144.50426
 10
109.648351
 20
145.590821
 10
113.782348
 20
141.45488
 10
115.989482
 20
143.663052
 10
114.51806
 20
145.117641
 42
0.183743
 10
113.782348
 20
144.381584
 10
109.683385
 20
148.5
  0
LWPOLYLINE
  5
A8
102
{ACAD_REACTORS
330
31
102
}
100
AcDbEntity
  8
0
  6
CONTINUOUS
 62
     7
100
AcDbPolyline
 90
        5
 70
     0
 10
84.922868
 20
107.614688
 10
75.271035
 20
97.958317
 10
80.841421
 20
92.385312
 10
81.927471
 20
93.471872
 10
80.245845
 20
95.171814
  0
LWPOLYLINE
  5
A9
102
{ACAD_REACTORS
330
31
102
}
100
AcDbEntity
  8
0
  6
CONTINUOUS
 62
     7
100
AcDbPolyline
 90
       19
 70
     0
 10
80.245845
 20
95.171814
 10
80.858938
 20
95.785195
 10
82.558081
 20
94.102779
 10
83.661648
 20
95.18934
 10
81.962505
 20
96.889281
 10
82.575598
 20
97.502663
 10
84.274741
 20
95.820246
 10
85.378308
 20
96.924332
 10
81.261828
 20
101.025223
 10
82.365395
 20
102.129309
 10
86.464358
 20
98.010893
 10
87.935781
 20
99.483007
 10
83.801784
 20
103.618949
 10
84.887834
 20
104.705509
 10
89.021831
 20
100.569568
 10
91.228965
 20
102.77774
 10
89.757542
 20
104.23233
 42
0.183743
 10
89.021831
 20
103.496272
 10
84.922868
 20
107.614688
  0
LWPOLYLINE
  5
AA
102
{ACAD_REACTORS
330
31
102
}
100
AcDbEntity
  8
0
  6
CONTINUOUS
 62
     7
100
AcDbPolyline
 90
        5
 70
     0
 10
73.672868
 20
96.614688
 10
64.021035
 20
86.958317
 10
69.591421
 20
81.385312
 10
70.677471
 20
82.471872
 10
68.995845
 20
84.171814
  0
LWPOLYLINE
  5
AB
102
{ACAD_REACTORS
330
31
102
}
100
AcDbEntity
  8
0
  6
CONTINUOUS
 62
     7
100
AcDbPolyline
 90
       19
 70
     0
 10
68.995845
 20
84.171814
 10
69.608938
 20
84.785195
 10
71.308081
 20
83.102779
 10
72.411648
 20
84.18934
 10
70.712505
 20
85.889281
 10
71.325598
 20
86.502663
 10
73.024741
 20
84.820246
 10
74.128308
 20
85.924332
 10
70.011828
 20
90.025223
 10
71.115395
 20
91.129309
 10
75.214358
 20
87.010893
 10
76.685781
 20
88.483007
 10
72.551784
 20
92.618949
 10
73.637834
 20
93.705509
 10
77.771831
 20
89.569568
 10
79.978965
 20
91.77774
 10
78.507542
 20
93.23233
 42
0.183743
 10
77.771831
 20
92.496272
 10
73.672868
 20
96.614688
  0
LWPOLYLINE
  5
AC
102
{ACAD_REACTORS
330
31
102
}
100
AcDbEntity
  8
0
  6
CONTINUOUS
 62
     7
100
AcDbPolyline
 90
        5
 70
     0
 10
96.151832
 20
118.979377
 10
86.5
 20
109.323006
 10
92.070386
 20
103.75
 10
93.156436
 20
104.836561
 10
91.47481
 20
106.536503
  0
LWPOLYLINE
  5
AD
102
{ACAD_REACTORS
330
31
102
}
100
AcDbEntity
  8
0
  6
CONTINUOUS
 62
     7
100
AcDbPolyline
 90
       19
 70
     0
 10
91.47481
 20
106.536503
 10
92.087903
 20
107.149884
 10
93.787046
 20
105.467467
 10
94.890613
 20
106.554028
 10
93.19147
 20
108.25397
 10
93.804563
 20
108.867351
 10
95.503706
 20
107.184934
 10
96.607273
 20
108.28902
 10
92.490793
 20
112.389911
 10
93.59436
 20
113.493997
 10
97.693323
 20
109.375581
 10
99.164746
 20
110.847696
 10
95.030748
 20
114.983637
 10
96.116799
 20
116.070198
 10
100.250796
 20
111.934257
 10
102.45793
 20
114.142429
 10
100.986507
 20
115.597018
 42
0.183743
 10
100.250796
 20
114.860961
 10
96.151832
 20
118.979377
  0
LWPOLYLINE
  5
AE
102
{ACAD_REACTORS
330
31
102
}
100
AcDbEntity
  8
0
  6
CONTINUOUS
 62
     7
100
AcDbPolyline
 90
        5
 70
     0
 10
107.193903
 20
130.25
 10
97.54207
 20
120.593629
 10
103.112456
 20
115.020623
 10
104.198506
 20
116.107184
 10
102.51688
 20
117.807126
  0
LWPOLYLINE
  5
AF
102
{ACAD_REACTORS
330
31
102
}
100
AcDbEntity
  8
0
  6
CONTINUOUS
 62
     7
100
AcDbPolyline
 90
       19
 70
     0
 10
102.51688
 20
117.807126
 10
103.129973
 20
118.420507
 10
104.829116
 20
116.73809
 10
105.932683
 20
117.824651
 10
104.23354
 20
119.524593
 10
104.846633
 20
120.137974
 10
106.545776
 20
118.455557
 10
107.649343
 20
119.559643
 10
103.532863
 20
123.660534
 10
104.63643
 20
124.76462
 10
108.735393
 20
120.646204
 10
110.206816
 20
122.118319
 10
106.072819
 20
126.25426
 10
107.158869
 20
127.340821
 10
111.292866
 20
123.20488
 10
113.5
 20
125.413052
 10
112.028577
 20
126.867641
 42
0.183743
 10
111.292866
 20
126.131584
 10
107.193903
 20
130.25
  0
LWPOLYLINE
  5
B0
102
{ACAD_REACTORS
330
31
102
}
100
AcDbEntity
  8
0
  6
CONTINUOUS
 62
     7
100
AcDbPolyline
 90
        4
 70
     1
 10
61.5
 20
83.75
 10
69.5
 20
83.75
 10
69.5
 20
85.75
 10
61.5
 20
85.75
  0
LWPOLYLINE
  5
B1
102
{ACAD_REACTORS
330
31
102
}
100
AcDbEntity
  8
0
  6
CONTINUOUS
 62
     7
100
AcDbPolyline
 90
        5
 70
     0
 10
104.859762
 20
111.770623
 10
95.20793
 20
102.114252
 10
100.778316
 20
96.541246
 10
101.864366
 20
97.627807
 10
100.18274
 20
99.327749
  0
LWPOLYLINE
  5
B2
102
{ACAD_REACTORS
330
31
102
}
100
AcDbEntity
  8
0
  6
CONTINUOUS
 62
     7
100
AcDbPolyline
 90
       19
 70
     0
 10
100.18274
 20
99.327749
 10
100.795833
 20
99.94113
 10
102.494976
 20
98.258713
 10
103.598543
 20
99.345274
 10
101.8994
 20
101.045216
 10
102.512493
 20
101.658597
 10
104.211636
 20
99.97618
 10
105.315203
 20
101.080266
 10
101.198722
 20
105.181157
 10
102.302289
 20
106.285243
 10
106.401253
 20
102.166827
 10
107.872675
 20
103.638942
 10
103.738678
 20
107.774883
 10
104.824728
 20
108.861444
 10
108.958726
 20
104.725503
 10
111.16586
 20
106.933675
 10
109.694437
 20
108.388264
 42
0.183743
 10
108.958726
 20
107.652207
 10
104.859762
 20
111.770623
  0
LWPOLYLINE
  5
B3
102
{ACAD_REACTORS
330
31
102
}
100
AcDbEntity
  8
0
  6
CONTINUOUS
 62
     7
100
AcDbPolyline
 90
        5
 70
     0
 10
93.651832
 20
100.5
 10
84.0
 20
90.843629
 10
89.570386
 20
85.270623
 10
90.656436
 20
86.357184
 10
88.97481
 20
88.057126
  0
LWPOLYLINE
  5
B4
102
{ACAD_REACTORS
330
31
102
}
100
AcDbEntity
  8
0
  6
CONTINUOUS
 62
     7
100
AcDbPolyline
 90
       19
 70
     0
 10
88.97481
 20
88.057126
 10
89.587903
 20
88.670507
 10
91.287046
 20
86.98809
 10
92.390613
 20
88.074651
 10
90.69147
 20
89.774593
 10
91.304563
 20
90.387974
 10
93.003706
 20
88.705557
 10
94.107273
 20
89.809643
 10
89.990793
 20
93.910534
 10
91.09436
 20
95.01462
 10
95.193323
 20
90.896204
 10
96.664746
 20
92.368319
 10
92.530748
 20
96.50426
 10
93.616799
 20
97.590821
 10
97.750796
 20
93.45488
 10
99.95793
 20
95.663052
 10
98.486507
 20
97.117641
 42
0.183743
 10
97.750796
 20
96.381584
 10
93.651832
 20
100.5
  0
LWPOLYLINE
  5
B5
102
{ACAD_REACTORS
330
31
102
}
100
AcDbEntity
  8
0
  6
CONTINUOUS
 62
     7
100
AcDbPolyline
 90
        5
 70
     0
 10
116.151832
 20
123.0
 10
106.5
 20
113.343629
 10
112.070386
 20
107.770623
 10
113.156436
 20
108.857184
 10
111.47481
 20
110.557126
  0
LWPOLYLINE
  5
B6
102
{ACAD_REACTORS
330
31
102
}
100
AcDbEntity
  8
0
  6
CONTINUOUS
 62
     7
100
AcDbPolyline
 90
       19
 70
     0
 10
111.47481
 20
110.557126
 10
112.087903
 20
111.170507
 10
113.787046
 20
109.48809
 10
114.890613
 20
110.574651
 10
113.19147
 20
112.274593
 10
113.804563
 20
112.887974
 10
115.503706
 20
111.205557
 10
116.607273
 20
112.309643
 10
112.490793
 20
116.410534
 10
113.59436
 20
117.51462
 10
117.693323
 20
113.396204
 10
119.164746
 20
114.868319
 10
115.030748
 20
119.00426
 10
116.116799
 20
120.090821
 10
120.250796
 20
115.95488
 10
122.45793
 20
118.163052
 10
120.986507
 20
119.617641
 42
0.183743
 10
120.250796
 20
118.881584
 10
116.151832
 20
123.0
  0
LWPOLYLINE
  5
B7
102
{ACAD_REACTORS
330
31
102
}
100
AcDbEntity
  8
0
  6
CONTINUOUS
 62
     7
100
AcDbPolyline
 90
        5
 70
     0
 10
113.693903
 20
103.5
 10
104.04207
 20
93.843629
 10
109.612456
 20
88.270623
 10
110.698506
 20
89.357184
 10
109.01688
 20
91.057126
  0
LWPOLYLINE
  5
B8
102
{ACAD_REACTORS
330
31
102
}
100
AcDbEntity
  8
0
  6
CONTINUOUS
 62
     7
100
AcDbPolyline
 90
       19
 70
     0
 10
109.01688
 20
91.057126
 10
109.629973
 20
91.670507
 10
111.329116
 20
89.98809
 10
112.432683
 20
91.074651
 10
110.73354
 20
92.774593
 10
111.346633
 20
93.387974
 10
113.045776
 20
91.705557
 10
114.149343
 20
92.809643
 10
110.032863
 20
96.910534
 10
111.13643
 20
98.01462
 10
115.235393
 20
93.896204
 10
116.706816
 20
95.368319
 10
112.572819
 20
99.50426
 10
113.658869
 20
100.590821
 10
117.792866
 20
96.45488
 10
120.0
 20
98.663052
 10
118.528577
 20
100.117641
 42
0.183743
 10
117.792866
 20
99.381584
 10
113.693903
 20
103.5
  0
LWPOLYLINE
  5
B9
102
{ACAD_REACTORS
330
31
102
}
100
AcDbEntity
  8
0
  6
CONTINUOUS
 62
     7
100
AcDbPolyline
 90
        6
 70
     0
 10
144.667763
 20
137.665877
 10
146.419457
 20
140.837934
 42
0.049379
 10
150.781174
 20
137.91123
 10
147.960947
 20
133.792814
 10
154.932688
 20
129.551721
 10
147.155168
 20
116.688243
  0
LWPOLYLINE
  5
BA
102
{ACAD_REACTORS
330
31
102
}
100
AcDbEntity
  8
0
  6
CONTINUOUS
 62
     7
100
AcDbPolyline
 90
        5
 70
     0
 10
144.580178
 20
113.86669
 10
146.507041
 20
116.951121
 10
147.855845
 20
116.442891
 42
-0.325233
 10
147.855845
 20
112.745079
 10
144.580178
 20
107.434951
  0
LWPOLYLINE
  5
BB
102
{ACAD_REACTORS
330
31
102
}
100
AcDbEntity
  8
0
  6
CONTINUOUS
 62
     7
100
AcDbPolyline
 90
        4
 70
     0
 10
39.867972
 20
157.749728
 10
45.82373
 20
157.749728
 42
-0.702815
 10
45.82373
 20
154.402419
 10
39.867972
 20
154.402419
  0
LWPOLYLINE
  5
BC
102
{ACAD_REACTORS
330
31
102
}
100
AcDbEntity
  8
0
  6
CONTINUOUS
 62
     7
100
AcDbPolyline
 90
        4
 70
     0
 10
40.25
 20
151.423654
 10
46.205759
 20
151.423654
 42
-0.702815
 10
46.205759
 20
148.076346
 10
40.25
 20
148.076346
  0
LWPOLYLINE
  5
BD
102
{ACAD_REACTORS
330
31
102
}
100
AcDbEntity
  8
0
  6
CONTINUOUS
 62
     7
100
AcDbPolyline
 90
        4
 70
     0
 10
40.0
 20
145.097308
 10
45.955759
 20
145.097308
 42
-0.702815
 10
45.955759
 20
141.75
 10
40.0
 20
141.75
  0
LWPOLYLINE
  5
BE
102
{ACAD_REACTORS
330
31
102
}
100
AcDbEntity
  8
0
  6
CONTINUOUS
 62
     7
100
AcDbPolyline
 90
        4
 70
     0
 10
39.933986
 20
138.673654
 10
45.889744
 20
138.673654
 42
-0.702815
 10
45.889744
 20
135.326346
 10
39.933986
 20
135.326346
  0
LWPOLYLINE
  5
BF
102
{ACAD_REACTORS
330
31
102
}
100
AcDbEntity
  8
0
  6
CONTINUOUS
 62
     7
100
AcDbPolyline
 90
        4
 70
     0
 10
40.183986
 20
132.347308
 10
46.139744
 20
132.347308
 42
-0.702815
 10
46.139744
 20
129.0
 10
40.183986
 20
129.0
  0
LWPOLYLINE
  5
C0
102
{ACAD_REACTORS
330
31
102
}
100
AcDbEntity
  8
0
  6
CONTINUOUS
 62
     7
100
AcDbPolyline
 90
        4
 70
     0
 10
40.0
 20
119.423654
 10
45.955759
 20
119.423654
 42
-0.702815
 10
45.955759
 20
116.076346
 10
40.0
 20
116.076346
  0
LWPOLYLINE
  5
C1
102
{ACAD_REACTORS
330
31
102
}
100
AcDbEntity
  8
0
  6
CONTINUOUS
 62
     7
100
AcDbPolyline
 90
        4
 70
     0
 10
40.0
 20
113.173654
 10
45.955759
 20
113.173654
 42
-0.702815
 10
45.955759
 20
109.826346
 10
40.0
 20
109.826346
  0
LWPOLYLINE
  5
C2
102
{ACAD_REACTORS
330
31
102
}
100
AcDbEntity
  8
0
  6
CONTINUOUS
 62
     7
100
AcDbPolyline
 90
        4
 70
     0
 10
40.0
 20
106.597308
 10
45.955759
 20
106.597308
 42
-0.702815
 10
45.955759
 20
103.25
 10
40.0
 20
103.25
  0
LWPOLYLINE
  5
C3
102
{ACAD_REACTORS
330
31
102
}
100
AcDbEntity
  8
0
  6
CONTINUOUS
 62
     7
100
AcDbPolyline
 90
        4
 70
     0
 10
40.0
 20
100.25
 10
45.955759
 20
100.25
 42
-0.702815
 10
45.955759
 20
96.902692
 10
40.0
 20
96.902692
  0
LWPOLYLINE
  5
C4
102
{ACAD_REACTORS
330
31
102
}
100
AcDbEntity
  8
0
  6
CONTINUOUS
 62
     7
100
AcDbPolyline
 90
        4
 70
     0
 10
40.367972
 20
94.25
 10
46.32373
 20
94.25
 42
-0.702815
 10
46.32373
 20
90.902692
 10
40.367972
 20
90.902692
  0
LWPOLYLINE
  5
C5
102
{ACAD_REACTORS
330
31
102
}
100
AcDbEntity
  8
0
  6
CONTINUOUS
 62
     7
100
AcDbPolyline
 90
       12
 70
     0
 10
40.004063
 20
125.994111
 10
40.93246
 20
125.906485
 10
40.844876
 20
127.045621
 10
42.929391
 20
127.045621
 10
42.87684
 20
125.818859
 10
46.467813
 20
125.853909
 42
-0.265544
 10
46.467813
 20
122.611752
 10
42.946908
 20
122.471551
 10
42.841807
 20
121.402515
 10
40.757291
 20
121.402515
 10
40.844876
 20
122.594227
 10
39.969029
 20
122.594227
  0
LWPOLYLINE
  5
C6
102
{ACAD_REACTORS
330
31
102
}
100
AcDbEntity
  8
0
  6
CONTINUOUS
 62
     7
100
AcDbPolyline
 90
        4
 70
     0
 10
144.5
 20
158.0
 10
138.544241
 20
158.0
 42
0.702815
 10
138.544241
 20
154.652692
 10
144.5
 20
154.652692
  0
LWPOLYLINE
  5
C7
102
{ACAD_REACTORS
330
31
102
}
100
AcDbEntity
  8
0
  6
CONTINUOUS
 62
     7
100
AcDbPolyline
 90
        4
 70
     0
 10
145.0
 20
145.0
 10
139.044241
 20
145.0
 42
0.702815
 10
139.044241
 20
141.652692
 10
145.0
 20
141.652692
  0
LWPOLYLINE
  5
C8
102
{ACAD_REACTORS
330
31
102
}
100
AcDbEntity
  8
0
  6
CONTINUOUS
 62
     7
100
AcDbPolyline
 90
        4
 70
     0
 10
145.0
 20
138.347308
 10
139.044241
 20
138.347308
 42
0.702815
 10
139.044241
 20
135.0
 10
145.0
 20
135.0
  0
LWPOLYLINE
  5
C9
102
{ACAD_REACTORS
330
31
102
}
100
AcDbEntity
  8
0
  6
CONTINUOUS
 62
     7
100
AcDbPolyline
 90
        4
 70
     0
 10
144.316014
 20
132.347308
 10
138.360256
 20
132.347308
 42
0.702815
 10
138.360256
 20
129.0
 10
144.316014
 20
129.0
  0
LWPOLYLINE
  5
CA
102
{ACAD_REACTORS
330
31
102
}
100
AcDbEntity
  8
0
  6
CONTINUOUS
 62
     7
100
AcDbPolyline
 90
        4
 70
     0
 10
144.75
 20
126.0
 10
138.794241
 20
126.0
 42
0.702815
 10
138.794241
 20
122.652692
 10
144.75
 20
122.652692
  0
LWPOLYLINE
  5
CB
102
{ACAD_REACTORS
330
31
102
}
100
AcDbEntity
  8
0
  6
CONTINUOUS
 62
     7
100
AcDbPolyline
 90
        4
 70
     0
 10
144.316014
 20
119.347308
 10
138.360256
 20
119.347308
 42
0.702815
 10
138.360256
 20
116.0
 10
144.316014
 20
116.0
  0
LWPOLYLINE
  5
CC
102
{ACAD_REACTORS
330
31
102
}
100
AcDbEntity
  8
0
  6
CONTINUOUS
 62
     7
100
AcDbPolyline
 90
        4
 70
     0
 10
144.566014
 20
113.347308
 10
138.610256
 20
113.347308
 42
0.702815
 10
138.610256
 20
110.0
 10
144.566014
 20
110.0
  0
LWPOLYLINE
  5
CD
102
{ACAD_REACTORS
330
31
102
}
100
AcDbEntity
  8
0
  6
CONTINUOUS
 62
     7
100
AcDbPolyline
 90
        4
 70
     0
 10
144.566014
 20
106.673654
 10
138.610256
 20
106.673654
 42
0.702815
 10
138.610256
 20
103.326346
 10
144.566014
 20
103.326346
  0
LWPOLYLINE
  5
CE
102
{ACAD_REACTORS
330
31
102
}
100
AcDbEntity
  8
0
  6
CONTINUOUS
 62
     7
100
AcDbPolyline
 90
        4
 70
     0
 10
144.816014
 20
94.0
 10
138.860256
 20
94.0
 42
0.702815
 10
138.860256
 20
90.652692
 10
144.816014
 20
90.652692
  0
LWPOLYLINE
  5
CF
102
{ACAD_REACTORS
330
31
102
}
100
AcDbEntity
  8
0
  6
CONTINUOUS
 62
     7
100
AcDbPolyline
 90
       12
 70
     0
 10
144.714966
 20
151.770043
 10
143.786568
 20
151.682417
 10
143.874153
 20
152.821553
 10
141.789638
 20
152.821553
 10
141.842188
 20
151.594791
 10
138.251216
 20
151.629841
 42
0.265544
 10
138.251216
 20
148.387684
 10
141.772121
 20
148.247483
 10
141.877222
 20
147.178447
 10
143.961738
 20
147.178447
 10
143.874153
 20
148.370159
 10
144.75
 20
148.370159
  0
LWPOLYLINE
  5
D0
102
{ACAD_REACTORS
330
31
102
}
100
AcDbEntity
  8
0
  6
CONTINUOUS
 62
     7
100
AcDbPolyline
 90
       12
 70
     0
 10
144.429592
 20
100.591596
 10
143.501194
 20
100.50397
 10
143.588779
 20
101.643106
 10
141.504264
 20
101.643106
 10
141.556814
 20
100.416344
 10
137.965842
 20
100.451394
 42
0.265544
 10
137.965842
 20
97.209237
 10
141.486747
 20
97.069036
 10
141.591848
 20
96.0
 10
143.676364
 20
96.0
 10
143.588779
 20
97.191712
 10
144.464626
 20
97.191712
  0
LWPOLYLINE
  5
D1
102
{ACAD_REACTORS
330
31
102
}
100
AcDbEntity
  8
0
  6
CONTINUOUS
 62
     7
100
AcDbPolyline
 90
        4
 70
     1
 10
137.427718
 20
124.200962
 10
138.927718
 20
126.799038
 10
136.329642
 20
128.299038
 10
134.829642
 20
125.700962
  0
LWPOLYLINE
  5
D2
102
{ACAD_REACTORS
330
31
102
}
100
AcDbEntity
  8
0
  6
CONTINUOUS
 62
     7
100
AcDbPolyline
 90
        4
 70
     1
 10
164.5
 20
80.0
 10
181.0
 20
80.0
 10
181.0
 20
190.0
 10
164.5
 20
190.0
  0
LWPOLYLINE
  5
D3
102
{ACAD_REACTORS
330
31
102
}
100
AcDbEntity
  8
0
  6
CONTINUOUS
 62
     7
100
AcDbPolyline
 90
        6
 70
     0
 10
180.665069
 20
185.912684
 10
173.886014
 20
186.087935
 10
171.503711
 20
189.259992
 10
167.544883
 20
189.259992
 10
166.651519
 20
188.03323
 10
164.672105
 20
188.03323
  0
LWPOLYLINE
  5
D4
102
{ACAD_REACTORS
330
31
102
}
100
AcDbEntity
  8
0
  6
CONTINUOUS
 62
     7
100
AcDbPolyline
 90
        4
 70
     0
 10
180.612518
 20
186.03536
 10
179.649086
 20
187.857978
 10
174.306421
 20
187.857978
 10
173.062718
 20
190.013575
  0
LINE
  5
D5
102
{ACAD_REACTORS
330
31
102
}
100
AcDbEntity
  8
0
  6
CONTINUOUS
 62
     7
100
AcDbLine
 10
165.022444
 20
173.750212
 30
0.0
 11
180.524933
 21
173.574961
 31
0.0
  0
LWPOLYLINE
  5
D6
102
{ACAD_REACTORS
330
31
102
}
100
AcDbEntity
  8
0
  6
CONTINUOUS
 62
     7
100
AcDbPolyline
 90
        4
 70
     0
 10
164.672105
 20
158.766188
 10
176.566106
 20
158.50331
 10
176.478521
 20
155.944635
 10
164.496936
 20
155.769383
  0
LINE
  5
D7
102
{ACAD_REACTORS
330
31
102
}
100
AcDbEntity
  8
0
  6
CONTINUOUS
 62
     7
100
AcDbLine
 10
166.003392
 20
158.678562
 30
0.0
 11
166.003392
 21
156.032261
 31
0.0
  0
LWPOLYLINE
  5
D8
102
{ACAD_REACTORS
330
31
102
}
100
AcDbEntity
  8
0
  6
CONTINUOUS
 62
     7
100
AcDbPolyline
 90
        4
 70
     0
 10
180.524933
 20
170.753407
 10
179.123578
 20
170.753407
 10
179.211163
 20
152.071571
 10
164.672105
 20
152.246823
  0
LWPOLYLINE
  5
D9
102
{ACAD_REACTORS
330
31
102
}
100
AcDbEntity
  8
0
  6
CONTINUOUS
 62
     7
100
AcDbPolyline
 90
        4
 70
     0
 10
164.5
 20
149.512896
 10
179.360824
 20
149.250018
 10
179.360824
 20
143.97494
 10
165.498711
 20
142.835804
  0
LINE
  5
DA
102
{ACAD_REACTORS
330
31
102
}
100
AcDbEntity
  8
0
  6
CONTINUOUS
 62
     7
100
AcDbLine
 10
165.828223
 20
152.159197
 30
0.0
 11
166.003392
 21
149.512896
 31
0.0
  0
LINE
  5
DB
102
{ACAD_REACTORS
330
31
102
}
100
AcDbEntity
  8
0
  6
CONTINUOUS
 62
     7
100
AcDbLine
 10
170.049805
 20
152.159197
 30
0.0
 11
170.049805
 21
149.512896
 31
0.0
  0
LWPOLYLINE
  5
DC
102
{ACAD_REACTORS
330
31
102
}
100
AcDbEntity
  8
0
  6
CONTINUOUS
 62
     7
100
AcDbPolyline
 90
        4
 70
     1
 10
166.5
 20
112.0
 10
176.5
 20
112.0
 10
176.5
 20
143.0
 10
166.5
 20
143.0
  0
LINE
  5
DD
102
{ACAD_REACTORS
330
31
102
}
100
AcDbEntity
  8
0
  6
CONTINUOUS
 62
     7
100
AcDbLine
 10
166.616485
 20
139.558596
 30
0.0
 11
175.953013
 21
139.558596
 31
0.0
  0
LINE
  5
DE
102
{ACAD_REACTORS
330
31
102
}
100
AcDbEntity
  8
0
  6
CONTINUOUS
 62
     7
100
AcDbLine
 10
166.729578
 20
134.270641
 30
0.0
 11
176.066106
 21
134.270641
 31
0.0
  0
LINE
  5
DF
102
{ACAD_REACTORS
330
31
102
}
100
AcDbEntity
  8
0
  6
CONTINUOUS
 62
     7
100
AcDbLine
 10
167.0
 20
129.0
 30
0.0
 11
176.336528
 21
129.0
 31
0.0
  0
LWPOLYLINE
  5
E0
102
{ACAD_REACTORS
330
31
102
}
100
AcDbEntity
  8
0
  6
CONTINUOUS
 62
     7
100
AcDbPolyline
 90
        4
 70
     1
 10
167.0
 20
129.0
 10
170.75
 20
129.0
 10
170.75
 20
133.75
 10
167.0
 20
133.75
  0
LWPOLYLINE
  5
E1
102
{ACAD_REACTORS
330
31
102
}
100
AcDbEntity
  8
0
  6
CONTINUOUS
 62
     7
100
AcDbPolyline
 90
        4
 70
     1
 10
171.75
 20
129.0
 10
175.5
 20
129.0
 10
175.5
 20
133.75
 10
171.75
 20
133.75
  0
LINE
  5
E2
102
{ACAD_REACTORS
330
31
102
}
100
AcDbEntity
  8
0
  6
CONTINUOUS
 62
     7
100
AcDbLine
 10
166.5289
 20
142.835804
 30
0.0
 11
166.70407
 21
107.119498
 31
0.0
  0
LINE
  5
E3
102
{ACAD_REACTORS
330
31
102
}
100
AcDbEntity
  8
0
  6
CONTINUOUS
 62
     7
100
AcDbLine
 10
176.215767
 20
142.75
 30
0.0
 11
176.390936
 21
107.033694
 31
0.0
  0
LINE
  5
E4
102
{ACAD_REACTORS
330
31
102
}
100
AcDbEntity
  8
0
  6
CONTINUOUS
 62
     7
100
AcDbLine
 10
166.616485
 20
108.626663
 30
0.0
 11
175.865428
 21
108.626663
 31
0.0
  0
LINE
  5
E5
102
{ACAD_REACTORS
330
31
102
}
100
AcDbEntity
  8
0
  6
CONTINUOUS
 62
     7
100
AcDbLine
 10
168.543348
 20
111.973971
 30
0.0
 11
168.543348
 21
106.944246
 31
0.0
  0
LINE
  5
E6
102
{ACAD_REACTORS
330
31
102
}
100
AcDbEntity
  8
0
  6
CONTINUOUS
 62
     7
100
AcDbLine
 10
171.27599
 20
111.973971
 30
0.0
 11
171.45116
 21
106.944246
 31
0.0
  0
LINE
  5
E7
102
{ACAD_REACTORS
330
31
102
}
100
AcDbEntity
  8
0
  6
CONTINUOUS
 62
     7
100
AcDbLine
 10
174.008633
 20
111.973971
 30
0.0
 11
174.183802
 21
106.681368
 31
0.0
  0
LWPOLYLINE
  5
E8
102
{ACAD_REACTORS
330
31
102
}
100
AcDbEntity
  8
0
  6
CONTINUOUS
 62
     7
100
AcDbPolyline
 90
        4
 70
     0
 10
166.178562
 20
107.031872
 10
179.035994
 20
106.418491
 10
179.035994
 20
100.950636
 10
164.672105
 20
100.950636
  0
LWPOLYLINE
  5
E9
102
{ACAD_REACTORS
330
31
102
}
100
AcDbEntity
  8
0
  6
CONTINUOUS
 62
     7
100
AcDbPolyline
 90
        6
 70
     0
 10
164.672105
 20
97.953831
 10
179.211163
 20
98.129083
 10
179.035994
 20
87.123273
 10
180.08701
 20
87.210899
 10
179.911841
 20
84.476972
 10
164.672105
 20
84.564598
  0
LINE
  5
EA
102
{ACAD_REACTORS
330
31
102
}
100
AcDbEntity
  8
0
  6
CONTINUOUS
 62
     7
100
AcDbLine
 10
166.003392
 20
100.86301
 30
0.0
 11
166.003392
 21
98.216709
 31
0.0
  0
LINE
  5
EB
102
{ACAD_REACTORS
330
31
102
}
100
AcDbEntity
  8
0
  6
CONTINUOUS
 62
     7
100
AcDbLine
 10
169.874636
 20
100.86301
 30
0.0
 11
169.874636
 21
98.216709
 31
0.0
  0
LINE
  5
EC
102
{ACAD_REACTORS
330
31
102
}
100
AcDbEntity
  8
0
  6
CONTINUOUS
 62
     7
100
AcDbLine
 10
176.215767
 20
100.687758
 30
0.0
 11
176.215767
 21
98.216709
 31
0.0
  0
LINE
  5
ED
102
{ACAD_REACTORS
330
31
102
}
100
AcDbEntity
  8
0
  6
CONTINUOUS
 62
     7
100
AcDbLine
 10
179.211163
 20
84.476972
 30
0.0
 11
179.211163
 21
80.060628
 31
0.0
  0
LINE
  5
EE
102
{ACAD_REACTORS
330
31
102
}
100
AcDbEntity
  8
0
  6
CONTINUOUS
 62
     7
100
AcDbLine
 10
166.003392
 20
84.126468
 30
0.0
 11
166.003392
 21
80.235879
 31
0.0
  0
ELLIPSE
  5
EF
102
{ACAD_REACTORS
330
31
102
}
100
AcDbEntity
  8
0
  6
CONTINUOUS
 62
     7
100
AcDbEllipse
 10
169.0
 20
141.0
 30
0.0
 11
1.4999999999999849
 21
0.0
 31
0.0
210
0.0
220
0.0
230
1.0
 40
0.666667
 41
0.0
 42
6.2831853071796004
  0
ELLIPSE
  5
F0
102
{ACAD_REACTORS
330
31
102
}
100
AcDbEntity
  8
0
  6
CONTINUOUS
 62
     7
100
AcDbEllipse
 10
173.75
 20
141.0
 30
0.0
 11
1.4999999999999849
 21
0.0
 31
0.0
210
0.0
220
0.0
230
1.0
 40
0.666667
 41
0.0
 42
6.2831853071796004
  0
LWPOLYLINE
  5
F1
102
{ACAD_REACTORS
330
31
102
}
100
AcDbEntity
  8
0
  6
CONTINUOUS
 62
     7
100
AcDbPolyline
 90
        4
 70
     0
 10
164.25
 20
94.5
 10
177.75
 20
94.5
 10
177.75
 20
92.0
 10
164.25
 20
92.0
  0
LINE
  5
F2
102
{ACAD_REACTORS
330
31
102
}
100
AcDbEntity
  8
0
  6
CONTINUOUS
 62
     7
100
AcDbLine
 10
166.0
 20
94.5
 30
0.0
 11
166.0
 21
92.0
 31
0.0
  0
LINE
  5
F3
102
{ACAD_REACTORS
330
31
102
}
100
AcDbEntity
  8
0
  6
CONTINUOUS
 62
     7
100
AcDbLine
 10
175.5
 20
94.5
 30
0.0
 11
175.5
 21
92.0
 31
0.0
  0
LINE
  5
F4
102
{ACAD_REACTORS
330
31
102
}
100
AcDbEntity
  8
0
  6
CONTINUOUS
 62
     7
100
AcDbLine
 10
164.5
 20
154.333333
 30
0.0
 11
181.0
 21
154.333333
 31
0.0
  0
LINE
  5
F5
102
{ACAD_REACTORS
330
31
102
}
100
AcDbEntity
  8
0
  6
CONTINUOUS
 62
     7
100
AcDbLine
 10
176.0
 20
151.95577
 30
0.0
 11
176.0
 21
149.309469
 31
0.0
  0
LINE
  5
F6
102
{ACAD_REACTORS
330
31
102
}
100
AcDbEntity
  8
0
  6
CONTINUOUS
 62
     7
100
AcDbLine
 10
40.0
 20
197.0
 30
0.0
 11
40.0
 21
192.5
 31
0.0
  0
LINE
  5
F7
102
{ACAD_REACTORS
330
31
102
}
100
AcDbEntity
  8
0
  6
CONTINUOUS
 62
     7
100
AcDbLine
 10
145.0
 20
197.0
 30
0.0
 11
145.0
 21
192.5
 31
0.0
  0
LINE
  5
F8
102
{ACAD_REACTORS
330
31
102
}
100
AcDbEntity
  8
0
  6
CONTINUOUS
 62
     7
100
AcDbLine
 10
40.0
 20
194.5
 30
0.0
 11
145.0
 21
194.5
 31
0.0
  0
LINE
  5
F9
102
{ACAD_REACTORS
330
31
102
}
100
AcDbEntity
  8
0
  6
CONTINUOUS
 62
     7
100
AcDbLine
 10
33.75
 20
80.0
 30
0.0
 11
38.25
 21
80.0
 31
0.0
  0
LINE
  5
FA
102
{ACAD_REACTORS
330
31
102
}
100
AcDbEntity
  8
0
  6
CONTINUOUS
 62
     7
100
AcDbLine
 10
33.75
 20
190.5
 30
0.0
 11
38.25
 21
190.5
 31
0.0
  0
LINE
  5
FB
102
{ACAD_REACTORS
330
31
102
}
100
AcDbEntity
  8
0
  6
CONTINUOUS
 62
     7
100
AcDbLine
 10
36.25
 20
80.0
 30
0.0
 11
36.25
 21
190.5
 31
0.0
  0
LWPOLYLINE
  5
FC
102
{ACAD_REACTORS
330
31
102
}
100
AcDbEntity
  8
0
  6
CONTINUOUS
 62
     7
100
AcDbPolyline
 90
        4
 70
     1
 10
88.5
 20
192.0
 10
100.5
 20
192.0
 10
100.5
 20
197.0
 10
88.5
 20
197.0
  0
MTEXT
  5
FE
100
AcDbEntity
  8
0
100
AcDbMText
 10
94.5
 20
194.5
 30
0.0
 40
3.638049
 41
12.0
 71
     5
 72
     5
  1
\C7;\fＭＳ Ｐゴシック|b0|i0|;\H3.6380485892296;104
  7
HORIZONTALBIGFONT
  0
LWPOLYLINE
  5
FF
102
{ACAD_REACTORS
330
31
102
}
100
AcDbEntity
  8
0
  6
CONTINUOUS
 62
     7
100
AcDbPolyline
 90
        4
 70
     1
 10
28.5
 20
135.0
 10
38.5
 20
135.0
 10
38.5
 20
140.0
 10
28.5
 20
140.0
  0
MTEXT
  5
100
100
AcDbEntity
  8
0
100
AcDbMText
 10
33.5
 20
137.5
 30
0.0
 40
3.638049
 41
10.0
 71
     5
 72
     5
  1
\C7;\fＭＳ Ｐゴシック|b0|i0|;\H3.6380485892296;110
  7
HORIZONTALBIGFONT
  0
LINE
  5
101
102
{ACAD_REACTORS
330
31
102
}
100
AcDbEntity
  8
0
  6
CONTINUOUS
 62
     7
100
AcDbLine
 10
164.0
 20
197.0
 30
0.0
 11
164.0
 21
192.5
 31
0.0
  0
LINE
  5
102
102
{ACAD_REACTORS
330
31
102
}
100
AcDbEntity
  8
0
  6
CONTINUOUS
 62
     7
100
AcDbLine
 10
181.0
 20
197.0
 30
0.0
 11
181.0
 21
192.5
 31
0.0
  0
LINE
  5
103
102
{ACAD_REACTORS
330
31
102
}
100
AcDbEntity
  8
0
  6
CONTINUOUS
 62
     7
100
AcDbLine
 10
164.0
 20
194.5
 30
0.0
 11
181.0
 21
194.5
 31
0.0
  0
LWPOLYLINE
  5
104
102
{ACAD_REACTORS
330
31
102
}
100
AcDbEntity
  8
0
  6
CONTINUOUS
 62
     7
100
AcDbPolyline
 90
        4
 70
     1
 10
167.75
 20
192.0
 10
176.75
 20
192.0
 10
176.75
 20
197.0
 10
167.75
 20
197.0
  0
MTEXT
  5
105
100
AcDbEntity
  8
0
100
AcDbMText
 10
172.25
 20
194.5
 30
0.0
 40
3.638049
 41
9.0
 71
     5
 72
     5
  1
\C7;\fＭＳ Ｐゴシック|b0|i0|;\H3.6380485892296;16
  7
HORIZONTALBIGFONT
  0
LINE
  5
106
102
{ACAD_REACTORS
330
31
102
}
100
AcDbEntity
  8
0
  6
CONTINUOUS
 62
     7
100
AcDbLine
 10
42.0
 20
225.0
 30
0.0
 11
48.0
 21
216.527344
 31
0.0
  0
LWPOLYLINE
  5
107
102
{ACAD_REACTORS
330
31
102
}
100
AcDbEntity
  8
0
  6
CONTINUOUS
 62
     7
100
AcDbPolyline
 90
        4
 70
     1
 10
27.5
 20
225.0
 10
62.5
 20
225.0
 10
62.5
 20
230.0
 10
27.5
 20
230.0
  0
MTEXT
  5
108
100
AcDbEntity
  8
0
100
AcDbMText
 10
45.0
 20
227.5
 30
0.0
 40
3.638049
 41
35.0
 71
     5
 72
     5
  1
\C7;\fＭＳ Ｐゴシック|b0|i0|;\H3.6380485892296;\M+18AEB\M+18CAF\M+18FEA\M+18F8A\M+191A4\M+1925B\M+18E71
  7
HORIZONTALBIGFONT
  0
LINE
  5
109
102
{ACAD_REACTORS
330
31
102
}
100
AcDbEntity
  8
0
  6
CONTINUOUS
 62
     7
100
AcDbLine
 10
143.0
 20
225.0
 30
0.0
 11
138.0
 21
216.402344
 31
0.0
  0
LWPOLYLINE
  5
10A
102
{ACAD_REACTORS
330
31
102
}
100
AcDbEntity
  8
0
  6
CONTINUOUS
 62
     7
100
AcDbPolyline
 90
        4
 70
     1
 10
130.0
 20
225.0
 10
165.0
 20
225.0
 10
165.0
 20
230.0
 10
130.0
 20
230.0
  0
MTEXT
  5
10B
100
AcDbEntity
  8
0
100
AcDbMText
 10
147.5
 20
227.5
 30
0.0
 40
3.638049
 41
35.0
 71
     5
 72
     5
  1
\C7;\fＭＳ Ｐゴシック|b0|i0|;\H3.6380485892296;\M+188C0\M+19153\M+18FEA\M+18F8A\M+191A4\M+1925B\M+18E71
  7
HORIZONTALBIGFONT
  0
LINE
  5
10C
102
{ACAD_REACTORS
330
31
102
}
100
AcDbEntity
  8
0
  6
CONTINUOUS
 62
     7
100
AcDbLine
 10
150.0
 20
125.0
 30
0.0
 11
155.0
 21
77.0
 31
0.0
  0
LWPOLYLINE
  5
10D
102
{ACAD_REACTORS
330
31
102
}
100
AcDbEntity
  8
0
  6
CONTINUOUS
 62
     7
100
AcDbPolyline
 90
        4
 70
     1
 10
140.0
 20
72.5
 10
175.0
 20
72.5
 10
175.0
 20
77.5
 10
140.0
 20
77.5
  0
MTEXT
  5
10E
100
AcDbEntity
  8
0
100
AcDbMText
 10
157.5
 20
75.0
 30
0.0
 40
3.638049
 41
35.0
 71
     5
 72
     5
  1
\C7;\fＭＳ Ｐゴシック|b0|i0|;\H3.6380485892296;\M+19364\M+18CB9\M+19770\M+1925B\M+18E71
  7
HORIZONTALBIGFONT
  0
ENDSEC
  0
SECTION
  2
OBJECTS
  0
DICTIONARY
  5
C
100
AcDbDictionary
  3
ACAD_GROUP
350
D
  3
ACAD_MLINESTYLE
350
1B
  0
DICTIONARY
  5
D
102
{ACAD_REACTORS
330
C
102
}
100
AcDbDictionary
  3
VISIOGROUP_0
350
31
  0
DICTIONARY
  5
1B
102
{ACAD_REACTORS
330
C
102
}
100
AcDbDictionary
  3
STANDARD
350
1C
  0
MLINESTYLE
  5
1C
102
{ACAD_REACTORS
330
1B
102
}
100
AcDbMlineStyle
  2
STANDARD
 70
     0
  3

 62
   256
 51
90.0
 52
90.0
 71
     2
 49
0.5
 62
   256
  6
BYLAYER
 49
-0.5
 62
   256
  6
BYLAYER
  0
GROUP
  5
31
102
{ACAD_REACTORS
330
D
102
}
100
AcDbGroup
300
Group created by Visio.
 70
     0
 71
     1
340
32
340
33
340
34
340
35
340
36
340
37
340
38
340
39
340
3A
340
3B
340
3C
340
3D
340
3E
340
3F
340
40
340
41
340
42
340
43
340
44
340
45
340
46
340
47
340
48
340
49
340
4A
340
4B
340
4C
340
4D
340
4E
340
4F
340
50
340
51
340
52
340
53
340
54
340
55
340
56
340
57
340
58
340
59
340
5A
340
5B
340
5C
340
5D
340
5E
340
5F
340
60
340
61
340
62
340
63
340
64
340
65
340
66
340
67
340
68
340
69
340
6A
340
6B
340
6C
340
6D
340
6E
340
6F
340
70
340
71
340
72
340
73
340
74
340
75
340
76
340
77
340
78
340
79
340
7A
340
7B
340
7C
340
7D
340
7E
340
7F
340
80
340
81
340
82
340
83
340
84
340
85
340
86
340
87
340
88
340
89
340
8A
340
8B
340
8C
340
8D
340
8E
340
8F
340
90
340
91
340
92
340
93
340
94
340
95
340
96
340
97
340
98
340
99
340
9A
340
9B
340
9C
340
9D
340
9E
340
9F
340
A0
340
A1
340
A2
340
A3
340
A4
340
A5
340
A6
340
A7
340
A8
340
A9
340
AA
340
AB
340
AC
340
AD
340
AE
340
AF
340
B0
340
B1
340
B2
340
B3
340
B4
340
B5
340
B6
340
B7
340
B8
340
B9
340
BA
340
BB
340
BC
340
BD
340
BE
340
BF
340
C0
340
C1
340
C2
340
C3
340
C4
340
C5
340
C6
340
C7
340
C8
340
C9
340
CA
340
CB
340
CC
340
CD
340
CE
340
CF
340
D0
340
D1
340
D2
340
D3
340
D4
340
D5
340
D6
340
D7
340
D8
340
D9
340
DA
340
DB
340
DC
340
DD
340
DE
340
DF
340
E0
340
E1
340
E2
340
E3
340
E4
340
E5
340
E6
340
E7
340
E8
340
E9
340
EA
340
EB
340
EC
340
ED
340
EE
340
EF
340
F0
340
F1
340
F2
340
F3
340
F4
340
F5
340
F6
340
F7
340
F8
340
F9
340
FA
340
FB
340
FC
340
FF
340
101
340
102
340
103
340
104
340
106
340
107
340
109
340
10A
340
10C
340
10D
  0
ENDSEC
  0
EOF
