  0
SECTION
  2
HEADER
  9
$ACADVER
  1
AC1014
  9
$ACADMAINTVER
 70
     0
  9
$DWGCODEPAGE
  3
DOS932
  9
$INSBASE
 10
0.0
 20
0.0
 30
0.0
  9
$EXTMIN
 10
0.0
 20
0.0
 30
0.0
  9
$EXTMAX
 10
210.0
 20
297.0
 30
0.0
  9
$LIMMIN
 10
0.0
 20
0.0
  9
$LIMMAX
 10
12.0
 20
9.0
  9
$ORTHOMODE
 70
     0
  9
$REGENMODE
 70
     1
  9
$FILLMODE
 70
     0
  9
$QTEXTMODE
 70
     0
  9
$MIRRTEXT
 70
     1
  9
$DRAGMODE
 70
     2
  9
$LTSCALE
 40
1.0
  9
$OSMODE
 70
     0
  9
$ATTMODE
 70
     1
  9
$TEXTSIZE
 40
0.2
  9
$TRACEWID
 40
0.05
  9
$TEXTSTYLE
  7
STANDARD
  9
$CLAYER
  8
0
  9
$CELTYPE
  6
BYLAYER
  9
$CECOLOR
 62
   256
  9
$CELTSCALE
 40
1.0
  9
$DELOBJ
 70
     1
  9
$DISPSILH
 70
     0
  9
$DIMSCALE
 40
1.0
  9
$DIMASZ
 40
0.18
  9
$DIMEXO
 40
0.0625
  9
$DIMDLI
 40
0.38
  9
$DIMRND
 40
0.0
  9
$DIMDLE
 40
0.0
  9
$DIMEXE
 40
0.18
  9
$DIMTP
 40
0.0
  9
$DIMTM
 40
0.0
  9
$DIMTXT
 40
0.18
  9
$DIMCEN
 40
0.09
  9
$DIMTSZ
 40
0.0
  9
$DIMTOL
 70
     0
  9
$DIMLIM
 70
     0
  9
$DIMTIH
 70
     0
  9
$DIMTOH
 70
     0
  9
$DIMSE1
 70
     0
  9
$DIMSE2
 70
     0
  9
$DIMTAD
 70
     1
  9
$DIMZIN
 70
     0
  9
$DIMBLK
  1

  9
$DIMASO
 70
     1
  9
$DIMSHO
 70
     1
  9
$DIMPOST
  1

  9
$DIMAPOST
  1

  9
$DIMALT
 70
     0
  9
$DIMALTD
 70
     2
  9
$DIMALTF
 40
25.4
  9
$DIMLFAC
 40
1.0
  9
$DIMTOFL
 70
     0
  9
$DIMTVP
 40
0.0
  9
$DIMTIX
 70
     0
  9
$DIMSOXD
 70
     0
  9
$DIMSAH
 70
     0
  9
$DIMBLK1
  1

  9
$DIMBLK2
  1

  9
$DIMSTYLE
  2
STANDARD
  9
$DIMCLRD
 70
     0
  9
$DIMCLRE
 70
     0
  9
$DIMCLRT
 70
     0
  9
$DIMTFAC
 40
1.0
  9
$DIMGAP
 40
0.09
  9
$DIMJUST
 70
     0
  9
$DIMSD1
 70
     0
  9
$DIMSD2
 70
     0
  9
$DIMTOLJ
 70
     1
  9
$DIMTZIN
 70
     0
  9
$DIMALTZ
 70
     0
  9
$DIMALTTZ
 70
     0
  9
$DIMFIT
 70
     3
  9
$DIMUPT
 70
     0
  9
$DIMUNIT
 70
     2
  9
$DIMDEC
 70
     2
  9
$DIMTDEC
 70
     4
  9
$DIMALTU
 70
     2
  9
$DIMALTTD
 70
     2
  9
$DIMTXSTY
  7
STANDARD
  9
$DIMAUNIT
 70
     0
  9
$LUNITS
 70
     2
  9
$LUPREC
 70
     4
  9
$SKETCHINC
 40
0.1
  9
$FILLETRAD
 40
0.5
  9
$AUNITS
 70
     0
  9
$AUPREC
 70
     0
  9
$MENU
  1
.
  9
$ELEVATION
 40
0.0
  9
$PELEVATION
 40
0.0
  9
$THICKNESS
 40
0.0
  9
$LIMCHECK
 70
     0
  9
$BLIPMODE
 70
     0
  9
$CHAMFERA
 40
0.5
  9
$CHAMFERB
 40
0.5
  9
$CHAMFERC
 40
1.0
  9
$CHAMFERD
 40
0.0
  9
$SKPOLY
 70
     0
  9
$TDCREATE
 40
2450772.666465926
  9
$TDUPDATE
 40
2453649.597592593
  9
$TDINDWG
 40
0.0011564931
  9
$TDUSRTIMER
 40
0.0000000000
  9
$USRTIMER
 70
     1
  9
$ANGBASE
 50
0.0
  9
$ANGDIR
 70
     0
  9
$PDMODE
 70
     0
  9
$PDSIZE
 40
0.0
  9
$PLINEWID
 40
0.0
  9
$COORDS
 70
     1
  9
$SPLFRAME
 70
     0
  9
$SPLINETYPE
 70
     6
  9
$SPLINESEGS
 70
     8
  9
$ATTDIA
 70
     0
  9
$ATTREQ
 70
     1
  9
$HANDLING
 70
     1
  9
$HANDSEED
  5
185
  9
$SURFTAB1
 70
     6
  9
$SURFTAB2
 70
     6
  9
$SURFTYPE
 70
     6
  9
$SURFU
 70
     6
  9
$SURFV
 70
     6
  9
$UCSNAME
  2

  9
$UCSORG
 10
0.0
 20
0.0
 30
0.0
  9
$UCSXDIR
 10
1.0
 20
0.0
 30
0.0
  9
$UCSYDIR
 10
0.0
 20
1.0
 30
0.0
  9
$PUCSNAME
  2

  9
$PUCSORG
 10
0.0
 20
0.0
 30
0.0
  9
$PUCSXDIR
 10
1.0
 20
0.0
 30
0.0
  9
$PUCSYDIR
 10
0.0
 20
1.0
 30
0.0
  9
$USERI1
 70
     0
  9
$USERI2
 70
     0
  9
$USERI3
 70
     0
  9
$USERI4
 70
     0
  9
$USERI5
 70
     0
  9
$USERR1
 40
0.0
  9
$USERR2
 40
0.0
  9
$USERR3
 40
0.0
  9
$USERR4
 40
0.0
  9
$USERR5
 40
0.0
  9
$WORLDVIEW
 70
     1
  9
$SHADEDGE
 70
     3
  9
$SHADEDIF
 70
    70
  9
$TILEMODE
 70
     1
  9
$MAXACTVP
 70
    48
  9
$PINSBASE
 10
0.0
 20
0.0
 30
0.0
  9
$PLIMCHECK
 70
     0
  9
$PEXTMIN
 10
0.0
 20
0.0
 30
0.0
  9
$PEXTMAX
 10
0.0
 20
0.0
 30
0.0
  9
$PLIMMIN
 10
0.0
 20
0.0
  9
$PLIMMAX
 10
12.0
 20
9.0
  9
$UNITMODE
 70
     0
  9
$VISRETAIN
 70
     1
  9
$PLINEGEN
 70
     0
  9
$PSLTSCALE
 70
     1
  9
$TREEDEPTH
 70
  3020
  9
$PICKSTYLE
 70
     1
  9
$CMLSTYLE
  2
STANDARD
  9
$CMLJUST
 70
     0
  9
$CMLSCALE
 40
1.0
  9
$PROXYGRAPHICS
 70
     1
  9
$MEASUREMENT
 70
     0
  0
ENDSEC
  0
SECTION
  2
CLASSES
  0
CLASS
  1
LWPOLYLINE
  2
AcDbPolyline
  3
"AutoCAD"
 90
        0
280
     0
281
     1
  0
CLASS
  1
IMAGE
  2
AcDbRasterImage
  3
ISM
 90
      127
280
     0
281
     1
  0
CLASS
  1
OLE2FRAME
  2
AcDbOle2Frame
  3
""
 90
        0
280
     0
281
     1
  0
CLASS
  1
HATCH
  2
AcDbHatch
  3
"ACAD_SEDONA"
 90
        0
280
     0
281
     1
  0
CLASS
  1
DICTIONARYVAR
  2
AcDbDictionaryVar
  3
"AutoCAD"
 90
        0
280
     0
281
     0
  0
CLASS
  1
RASTERVARIABLES
  2
AcDbRasterVariables
  3
ISM
 90
        0
280
     0
281
     0
  0
CLASS
  1
IMAGEDEF
  2
AcDbRasterImageDef
  3
ISM
 90
        0
280
     0
281
     0
  0
CLASS
  1
IMAGEDEF_REACTOR
  2
AcDbRasterImageDefReactor
  3
ISM
 90
        1
280
     0
281
     0
  0
CLASS
  1
IDBUFFER
  2
AcDbIdBuffer
  3
"Acad"
 90
        0
280
     0
281
     0
  0
CLASS
  1
SPATIAL_FILTER
  2
AcDbSpatialFilter
  3
"Acad"
 90
        0
280
     0
281
     0
  0
CLASS
  1
XRECORD
  2
AcDbXrecord
  3
"<Built In>"
 90
        0
280
     0
281
     0
  0
CLASS
  1
SORTENTSTABLE
  2
AcDbSortentsTable
  3
"AutoCAD"
 90
        0
280
     0
281
     0
  0
CLASS
  1
LAYER_INDEX
  2
AcDbLayerIndex
  3
"Acad"
 90
        0
280
     0
281
     0
  0
CLASS
  1
SPATIAL_INDEX
  2
AcDbSpatialIndex
  3
"Acad"
 90
        0
280
     0
281
     0
  0
CLASS
  1
OBJECT_PTR
  2
CAseDLPNTableRecord
  3
"ASE-LPNTableRecord"
 90
        1
280
     0
281
     0
  0
CLASS
  1
LAYOUT
  2
AcDbLayout
  3
"AutoCAD 2000"
 90
        1
280
     0
281
     0
  0
CLASS
  1
PLOTSETTINGS
  2
AcDbPlotSettings
  3
"AutoCAD 2000"
 90
        1
280
     0
281
     0
  0
CLASS
  1
ACDBDICTIONARYWDFLT
  2
AcDbDictionaryWithDefault
  3
"AutoCAD 2000"
 90
        1
280
     0
281
     0
  0
CLASS
  1
ACDBPLACEHOLDER
  2
AcDbPlaceHolder
  3
"AutoCAD 2000"
 90
        1
280
     0
281
     0
  0
CLASS
  1
VBA_PROJECT
  2
AcDbVbaProject
  3
"acadvba"
 90
        1
280
     0
281
     0
  0
CLASS
  1
WIPEOUT
  2
AcDbWipeout
  3
WipeOut|AutoCAD Express Tool|expresstools@autodesk.com
 90
      127
280
     0
281
     1
  0
CLASS
  1
WIPEOUTVARIABLES
  2
AcDbWipeoutVariables
  3
WipeOut|AutoCAD Express Tool|expresstools@autodesk.com
 90
        0
280
     0
281
     0
  0
CLASS
  1
RTEXT
  2
RText
  3
RText|AutoCAD Express Tool|expresstools@autodesk.com
 90
        0
280
     0
281
     1
  0
CLASS
  1
ARCALIGNEDTEXT
  2
AcDbArcAlignedText
  3
ATEXT|AutoCAD Express Tool|expresstools@autodesk.com
 90
        0
280
     0
281
     1
  0
ENDSEC
  0
SECTION
  2
TABLES
  0
TABLE
  2
VPORT
  5
8
100
AcDbSymbolTable
 70
     1
  0
VPORT
  5
25
100
AcDbSymbolTableRecord
100
AcDbViewportTableRecord
  2
*ACTIVE
 70
     0
 10
0.0
 20
0.0
 11
1.0
 21
1.0
 12
105.0
 22
148.5
 13
0.0
 23
0.0
 14
0.5
 24
0.5
 15
0.5
 25
0.5
 16
0.0
 26
0.0
 36
1.0
 17
0.0
 27
0.0
 37
0.0
 40
297.0
 41
0.707071
 42
50.0
 43
0.0
 44
0.0
 50
0.0
 51
0.0
 71
     0
 72
   100
 73
     1
 74
     1
 75
     0
 76
     0
 77
     0
 78
     0
  0
ENDTAB
  0
TABLE
  2
LTYPE
  5
5
100
AcDbSymbolTable
 70
     3
  0
LTYPE
  5
12
100
AcDbSymbolTableRecord
100
AcDbLinetypeTableRecord
  2
BYBLOCK
 70
    64
  3

 72
    65
 73
     0
 40
0.0
  0
LTYPE
  5
13
100
AcDbSymbolTableRecord
100
AcDbLinetypeTableRecord
  2
BYLAYER
 70
    64
  3

 72
    65
 73
     0
 40
0.0
  0
LTYPE
  5
14
100
AcDbSymbolTableRecord
100
AcDbLinetypeTableRecord
  2
CONTINUOUS
 70
     0
  3
Solid line
 72
    65
 73
     0
 40
0.0
  0
ENDTAB
  0
TABLE
  2
LAYER
  5
2
100
AcDbSymbolTable
 70
     2
  0
LAYER
  5
E
100
AcDbSymbolTableRecord
100
AcDbLayerTableRecord
  2
0
 70
     0
 62
     7
  6
CONTINUOUS
  0
LAYER
  5
15A
100
AcDbSymbolTableRecord
100
AcDbLayerTableRecord
  2
\U+5BF8\U+6CD5
 70
     0
 62
     7
  6
CONTINUOUS
  0
ENDTAB
  0
TABLE
  2
STYLE
  5
3
100
AcDbSymbolTable
 70
     2
  0
STYLE
  5
F
100
AcDbSymbolTableRecord
100
AcDbTextStyleTableRecord
  2
STANDARD
 70
     0
 40
0.0
 41
1.0
 50
0.0
 71
     0
 42
0.2
  3
txt.shx
  4

  0
STYLE
  5
15F
100
AcDbSymbolTableRecord
100
AcDbTextStyleTableRecord
  2
HORIZONTALBIGFONT
 70
     0
 40
0.0
 41
1.0
 50
0.0
 71
     0
 42
0.2
  3
txt.shx
  4
bigfont.shx
  0
ENDTAB
  0
TABLE
  2
VIEW
  5
6
100
AcDbSymbolTable
 70
     0
  0
ENDTAB
  0
TABLE
  2
UCS
  5
7
100
AcDbSymbolTable
 70
     0
  0
ENDTAB
  0
TABLE
  2
APPID
  5
9
100
AcDbSymbolTable
 70
     1
  0
APPID
  5
10
100
AcDbSymbolTableRecord
100
AcDbRegAppTableRecord
  2
ACAD
 70
     0
  0
ENDTAB
  0
TABLE
  2
DIMSTYLE
  5
A
100
AcDbSymbolTable
 70
     1
  0
DIMSTYLE
105
1D
100
AcDbSymbolTableRecord
100
AcDbDimStyleTableRecord
  2
STANDARD
 70
     0
  3

  4

  5

  6

  7

 40
1.0
 41
0.18
 42
0.0625
 43
0.38
 44
0.18
 45
0.0
 46
0.0
 47
0.0
 48
0.0
 71
     0
 72
     0
 73
     1
 74
     1
 75
     0
 76
     0
 77
     0
 78
     0
140
0.18
141
0.09
142
0.0
143
25.4
144
1.0
145
0.0
146
1.0
147
0.09
170
     0
171
     2
172
     0
173
     0
174
     0
175
     0
176
     0
177
     0
178
     0
270
     2
271
     4
272
     4
273
     2
274
     2
275
     0
280
     0
281
     0
282
     0
283
     1
284
     0
285
     0
286
     0
287
     3
288
     0
340
F
  0
ENDTAB
  0
TABLE
  2
BLOCK_RECORD
  5
1
100
AcDbSymbolTable
 70
     2
  0
BLOCK_RECORD
  5
18
100
AcDbSymbolTableRecord
100
AcDbBlockTableRecord
  2
*MODEL_SPACE
  0
BLOCK_RECORD
  5
15
100
AcDbSymbolTableRecord
100
AcDbBlockTableRecord
  2
*PAPER_SPACE
  0
BLOCK_RECORD
  5
170
100
AcDbSymbolTableRecord
100
AcDbBlockTableRecord
  2
\U+6C34\U+5E73\U+30B0\U+30EA\U+30C3\U+30C9
  0
BLOCK_RECORD
  5
178
100
AcDbSymbolTableRecord
100
AcDbBlockTableRecord
  2
\U+5782\U+76F4\U+30B0\U+30EA\U+30C3\U+30C9
  0
ENDTAB
  0
ENDSEC
  0
SECTION
  2
BLOCKS
  0
BLOCK
  5
19
100
AcDbEntity
  8
0
100
AcDbBlockBegin
  2
*MODEL_SPACE
 70
     0
 10
0.0
 20
0.0
 30
0.0
  3
*MODEL_SPACE
  1

  0
ENDBLK
  5
1A
100
AcDbEntity
  8
0
100
AcDbBlockEnd
  0
BLOCK
  5
16
100
AcDbEntity
 67
     1
  8
0
100
AcDbBlockBegin
  2
*PAPER_SPACE
 70
     0
 10
0.0
 20
0.0
 30
0.0
  3
*PAPER_SPACE
  1

  0
ENDBLK
  5
17
100
AcDbEntity
 67
     1
  8
0
100
AcDbBlockEnd
  0
BLOCK
  5
171
100
AcDbEntity
  8
0
100
AcDbBlockBegin
  2
\U+6C34\U+5E73\U+30B0\U+30EA\U+30C3\U+30C9
 70
     0
 10
0.0
 20
0.0
 30
0.0
  3
\U+6C34\U+5E73\U+30B0\U+30EA\U+30C3\U+30C9
  1

  0
LWPOLYLINE
  5
172
100
AcDbEntity
  8
\U+5BF8\U+6CD5
  6
CONTINUOUS
100
AcDbPolyline
 90
        2
 70
     1
 10
40.0
 20
59.822222
 10
40.0
 20
51.411111
  0
LWPOLYLINE
  5
173
100
AcDbEntity
  8
\U+5BF8\U+6CD5
  6
CONTINUOUS
100
AcDbPolyline
 90
        2
 70
     1
 10
65.0
 20
59.822222
 10
65.0
 20
51.411111
  0
LINE
  5
174
100
AcDbEntity
  8
\U+5BF8\U+6CD5
  6
CONTINUOUS
100
AcDbLine
 10
52.5
 20
57.0
 30
0.0
 11
40.0
 21
57.0
 31
0.0
  0
LINE
  5
175
100
AcDbEntity
  8
\U+5BF8\U+6CD5
  6
CONTINUOUS
100
AcDbLine
 10
52.5
 20
57.0
 30
0.0
 11
65.0
 21
57.0
 31
0.0
  0
MTEXT
  5
176
100
AcDbEntity
  8
\U+5BF8\U+6CD5
100
AcDbMText
 10
52.5
 20
59.399517
 30
0.0
 40
2.425338
 41
7.343554
 71
     5
 72
     5
  1
\C7;\fＭＳ Ｐゴシック|b0|i0|;\H2.4253379702568;25.00
  7
HORIZONTALBIGFONT
  0
ENDBLK
  5
177
100
AcDbEntity
  8
0
100
AcDbBlockEnd
  0
BLOCK
  5
179
100
AcDbEntity
  8
0
100
AcDbBlockBegin
  2
\U+5782\U+76F4\U+30B0\U+30EA\U+30C3\U+30C9
 70
     2
 10
0.0
 20
0.0
 30
0.0
  3
\U+5782\U+76F4\U+30B0\U+30EA\U+30C3\U+30C9
  1

  0
ATTDEF
  5
17A
100
AcDbEntity
  8
0
100
AcDbText
 10
55.0
 20
40.0
 30
0.0
 40
0.2
  1
0.00
100
AcDbAttributeDefinition
  3
\U+7CBE\U+5EA6
  2
LPREC
 70
     0
  0
ATTDEF
  5
17B
100
AcDbEntity
  8
0
100
AcDbText
 10
55.0
 20
40.0
 30
0.0
 40
0.2
  1
 \U+56F3\U+9762\U+30DA\U+30FC\U+30B8\U+306E\U+5358\U+4F4D\U+3092\U+4F7F\U+7528
100
AcDbAttributeDefinition
  3
\U+5358\U+4F4D
  2
LUNITS
 70
     0
  0
ATTDEF
  5
17C
100
AcDbEntity
  8
0
100
AcDbText
 10
55.0
 20
40.0
 30
0.0
 40
0.2
  1
\U+5358\U+4F4D\U+3092\U+8868\U+793A\U+3057\U+306A\U+3044
100
AcDbAttributeDefinition
  3
\U+5358\U+4F4D\U+306E\U+8868\U+793A
  2
SHOWUNITS
 70
     0
  0
ATTDEF
  5
17D
100
AcDbEntity
  8
0
100
AcDbText
 10
55.0
 20
40.0
 30
0.0
 40
0.2
  1
\U+4E21\U+7AEF
100
AcDbAttributeDefinition
  3
\U+5BF8\U+6CD5\U+88DC\U+52A9\U+7DDA
  2
EXTENSIONS
 70
     0
  0
ATTDEF
  5
17E
100
AcDbEntity
  8
0
100
AcDbText
 10
55.0
 20
40.0
 30
0.0
 40
0.2
  1
1.5707963267949
100
AcDbAttributeDefinition
  3
\U+89D2\U+5EA6
  2
ANGLE
 70
     0
  0
LWPOLYLINE
  5
17F
100
AcDbEntity
  8
\U+5BF8\U+6CD5
  6
CONTINUOUS
100
AcDbPolyline
 90
        2
 70
     1
 10
45.177778
 20
40.0
 10
53.588889
 20
40.0
  0
LWPOLYLINE
  5
180
100
AcDbEntity
  8
\U+5BF8\U+6CD5
  6
CONTINUOUS
100
AcDbPolyline
 90
        2
 70
     1
 10
45.177778
 20
65.0
 10
53.588889
 20
65.0
  0
LINE
  5
181
100
AcDbEntity
  8
\U+5BF8\U+6CD5
  6
CONTINUOUS
100
AcDbLine
 10
48.0
 20
52.5
 30
0.0
 11
48.0
 21
40.0
 31
0.0
  0
LINE
  5
182
100
AcDbEntity
  8
\U+5BF8\U+6CD5
  6
CONTINUOUS
100
AcDbLine
 10
48.0
 20
52.5
 30
0.0
 11
48.0
 21
65.0
 31
0.0
  0
MTEXT
  5
183
100
AcDbEntity
  8
\U+5BF8\U+6CD5
100
AcDbMText
 10
45.600483
 20
52.5
 30
0.0
 40
2.425338
 41
7.343554
 71
     5
 72
     5
  1
\C7;\fＭＳ Ｐゴシック|b0|i0|;\H2.4253379702568;25.00
  7
HORIZONTALBIGFONT
 11
0.0
 21
1.0
 31
0.0
  0
ENDBLK
  5
184
100
AcDbEntity
  8
0
100
AcDbBlockEnd
  0
ENDSEC
  0
SECTION
  2
ENTITIES
  0
LWPOLYLINE
  5
32
102
{ACAD_REACTORS
330
31
102
}
100
AcDbEntity
  8
0
  6
CONTINUOUS
 62
     7
100
AcDbPolyline
 90
        4
 70
     1
 10
113.89056
 20
183.745611
 10
65.819272
 20
183.745611
 10
65.819272
 20
192.914686
 10
113.89056
 20
192.914686
  0
LWPOLYLINE
  5
33
102
{ACAD_REACTORS
330
31
102
}
100
AcDbEntity
  8
0
  6
CONTINUOUS
 62
     7
100
AcDbPolyline
 90
        4
 70
     1
 10
111.001078
 20
183.745611
 10
102.192047
 20
183.745611
 10
102.192047
 20
192.914686
 10
111.001078
 20
192.914686
  0
LWPOLYLINE
  5
34
102
{ACAD_REACTORS
330
31
102
}
100
AcDbEntity
  8
0
  6
CONTINUOUS
 62
     7
100
AcDbPolyline
 90
        4
 70
     1
 10
70.934194
 20
184.356882
 10
66.671759
 20
184.356882
 10
66.671759
 20
192.303415
 10
70.934194
 20
192.303415
  0
LINE
  5
35
102
{ACAD_REACTORS
330
31
102
}
100
AcDbEntity
  8
0
  6
CONTINUOUS
 62
     7
100
AcDbLine
 10
117.820973
 20
193.814767
 30
0.0
 11
60.846432
 21
193.814767
 31
0.0
  0
LINE
  5
36
102
{ACAD_REACTORS
330
31
102
}
100
AcDbEntity
  8
0
  6
CONTINUOUS
 62
     7
100
AcDbLine
 10
60.846432
 20
182.753998
 30
0.0
 11
117.820973
 21
182.753998
 31
0.0
  0
LINE
  5
37
102
{ACAD_REACTORS
330
31
102
}
100
AcDbEntity
  8
0
  6
CONTINUOUS
 62
     7
100
AcDbLine
 10
117.820973
 20
193.814767
 30
0.0
 11
117.820973
 21
193.07531
 31
0.0
  0
LINE
  5
38
102
{ACAD_REACTORS
330
31
102
}
100
AcDbEntity
  8
0
  6
CONTINUOUS
 62
     7
100
AcDbLine
 10
117.820973
 20
182.753998
 30
0.0
 11
117.820973
 21
183.743713
 31
0.0
  0
LINE
  5
39
102
{ACAD_REACTORS
330
31
102
}
100
AcDbEntity
  8
0
  6
CONTINUOUS
 62
     7
100
AcDbLine
 10
112.42189
 20
190.530329
 30
0.0
 11
109.011942
 21
188.409511
 31
0.0
  0
LINE
  5
3A
102
{ACAD_REACTORS
330
31
102
}
100
AcDbEntity
  8
0
  6
CONTINUOUS
 62
     7
100
AcDbLine
 10
112.42189
 20
186.288694
 30
0.0
 11
109.011942
 21
188.409511
 31
0.0
  0
LWPOLYLINE
  5
3B
102
{ACAD_REACTORS
330
31
102
}
100
AcDbEntity
  8
0
  6
CONTINUOUS
 62
     7
100
AcDbPolyline
 90
        4
 70
     1
 10
99.208343
 20
190.671717
 10
96.792963
 20
190.671717
 10
96.792963
 20
193.07531
 10
99.208343
 20
193.07531
  0
LWPOLYLINE
  5
3C
102
{ACAD_REACTORS
330
31
102
}
100
AcDbEntity
  8
0
  6
CONTINUOUS
 62
     7
100
AcDbPolyline
 90
        4
 70
     1
 10
99.208343
 20
183.460937
 10
96.792963
 20
183.460937
 10
96.792963
 20
185.86453
 10
99.208343
 20
185.86453
  0
LWPOLYLINE
  5
3D
102
{ACAD_REACTORS
330
31
102
}
100
AcDbEntity
  8
0
  6
CONTINUOUS
 62
     7
100
AcDbPolyline
 90
        4
 70
     1
 10
100.06083
 20
188.975063
 10
95.798395
 20
188.975063
 10
95.798395
 20
193.782249
 10
100.06083
 20
193.782249
  0
LWPOLYLINE
  5
3E
102
{ACAD_REACTORS
330
31
102
}
100
AcDbEntity
  8
0
  6
CONTINUOUS
 62
     7
100
AcDbPolyline
 90
        4
 70
     1
 10
100.06083
 20
182.753998
 10
95.798395
 20
182.753998
 10
95.798395
 20
187.561184
 10
100.06083
 20
187.561184
  0
LINE
  5
3F
102
{ACAD_REACTORS
330
31
102
}
100
AcDbEntity
  8
0
  6
CONTINUOUS
 62
     7
100
AcDbLine
 10
94.131569
 20
192.914686
 30
0.0
 11
94.08038
 21
183.745611
 31
0.0
  0
ELLIPSE
  5
40
102
{ACAD_REACTORS
330
31
102
}
100
AcDbEntity
  8
0
  6
CONTINUOUS
 62
     7
100
AcDbEllipse
 10
105.84064
 20
194.507345
 30
0.0
 11
0.0068985542355295
 21
-3.3351404124397241
 31
0.0
210
0.0
220
0.0
230
1.0
 40
0.318278
 41
-0.7853981633974373
 42
0.7853981633974345
  0
ELLIPSE
  5
41
102
{ACAD_REACTORS
330
31
102
}
100
AcDbEntity
  8
0
  6
CONTINUOUS
 62
     7
100
AcDbEllipse
 10
91.660169
 20
194.625471
 30
0.0
 11
0.0000000000000153
 21
-3.5000000000000382
 31
0.0
210
0.0
220
0.0
230
1.0
 40
0.295357
 41
-0.7853981633974377
 42
0.7853981633974351
  0
ELLIPSE
  5
42
102
{ACAD_REACTORS
330
31
102
}
100
AcDbEntity
  8
0
  6
CONTINUOUS
 62
     7
100
AcDbEllipse
 10
78.13527
 20
194.625471
 30
0.0
 11
0.0000000000000153
 21
-3.5000000000000386
 31
0.0
210
0.0
220
0.0
230
1.0
 40
0.268767
 41
-0.7853981633974375
 42
0.7853981633974352
  0
ELLIPSE
  5
43
102
{ACAD_REACTORS
330
31
102
}
100
AcDbEntity
  8
0
  6
CONTINUOUS
 62
     7
100
AcDbEllipse
 10
78.040727
 20
182.034827
 30
0.0
 11
0.0
 21
3.5000000000000338
 31
0.0
210
0.0
220
0.0
230
1.0
 40
0.275943
 41
5.4977871437821424
 42
0.7853981633974431
  0
ELLIPSE
  5
44
102
{ACAD_REACTORS
330
31
102
}
100
AcDbEntity
  8
0
  6
CONTINUOUS
 62
     7
100
AcDbEllipse
 10
91.518619
 20
182.034827
 30
0.0
 11
0.0
 21
3.5000000000000346
 31
0.0
210
0.0
220
0.0
230
1.0
 40
0.259476
 41
5.4977871437821433
 42
0.7853981633974432
  0
ELLIPSE
  5
45
102
{ACAD_REACTORS
330
31
102
}
100
AcDbEntity
  8
0
  6
CONTINUOUS
 62
     7
100
AcDbEllipse
 10
105.978966
 20
182.034827
 30
0.0
 11
0.0
 21
3.5000000000000338
 31
0.0
210
0.0
220
0.0
230
1.0
 40
0.311416
 41
5.4977871437821424
 42
0.7853981633974432
  0
LINE
  5
46
102
{ACAD_REACTORS
330
31
102
}
100
AcDbEntity
  8
0
  6
CONTINUOUS
 62
     7
100
AcDbLine
 10
60.846432
 20
193.814767
 30
0.0
 11
60.846432
 21
192.933922
 31
0.0
  0
LINE
  5
47
102
{ACAD_REACTORS
330
31
102
}
100
AcDbEntity
  8
0
  6
CONTINUOUS
 62
     7
100
AcDbLine
 10
60.846432
 20
182.753998
 30
0.0
 11
60.846432
 21
183.743713
 31
0.0
  0
LWPOLYLINE
  5
48
102
{ACAD_REACTORS
330
31
102
}
100
AcDbEntity
  8
0
  6
CONTINUOUS
 62
     7
100
AcDbPolyline
 90
        4
 70
     1
 10
112.585238
 20
184.280473
 10
72.197041
 20
184.280473
 10
72.197041
 20
192.379824
 10
112.585238
 20
192.379824
  0
LINE
  5
49
102
{ACAD_REACTORS
330
31
102
}
100
AcDbEntity
  8
0
  6
CONTINUOUS
 62
     7
100
AcDbLine
 10
112.42189
 20
190.530329
 30
0.0
 11
112.401863
 21
186.301149
 31
0.0
  0
ELLIPSE
  5
4A
102
{ACAD_REACTORS
330
31
102
}
100
AcDbEntity
  8
0
  6
CONTINUOUS
 62
     7
100
AcDbEllipse
 10
118.837544
 20
186.447544
 30
0.0
 11
-2.7242563995001436
 21
-1.8176092163816364
 31
0.0
210
0.0
220
0.0
230
1.0
 40
0.750157
 41
-0.5758762087885098
 42
0.9949201180063938
  0
LWPOLYLINE
  5
4B
102
{ACAD_REACTORS
330
31
102
}
100
AcDbEntity
  8
0
  6
CONTINUOUS
 62
     7
100
AcDbPolyline
 90
        4
 70
     1
 10
123.872434
 20
183.743713
 10
114.351262
 20
183.743713
 10
114.351262
 20
193.07531
 10
123.872434
 20
193.07531
  0
ELLIPSE
  5
4C
102
{ACAD_REACTORS
330
31
102
}
100
AcDbEntity
  8
0
  6
CONTINUOUS
 62
     7
100
AcDbEllipse
 10
118.497579
 20
190.755977
 30
0.0
 11
0.0
 21
1.5474378064851244
 31
0.0
210
0.0
220
0.0
230
1.0
 40
0.994855
 41
4.7123889803846826
 42
1.5707963267949108
  0
ELLIPSE
  5
4D
102
{ACAD_REACTORS
330
31
102
}
100
AcDbEntity
  8
0
  6
CONTINUOUS
 62
     7
100
AcDbEllipse
 10
118.497579
 20
190.755977
 30
0.0
 11
0.0
 21
1.5474378064851244
 31
0.0
210
0.0
220
0.0
230
1.0
 40
0.994855
 41
1.570796326794897
 42
4.7123889803846826
  0
ELLIPSE
  5
4E
102
{ACAD_REACTORS
330
31
102
}
100
AcDbEntity
  8
0
  6
CONTINUOUS
 62
     7
100
AcDbEllipse
 10
118.482222
 20
186.03788
 30
0.0
 11
0.0
 21
1.5281792945341375
 31
0.0
210
0.0
220
0.0
230
1.0
 40
0.994855
 41
4.7123889803846826
 42
1.5707963267949108
  0
ELLIPSE
  5
4F
102
{ACAD_REACTORS
330
31
102
}
100
AcDbEntity
  8
0
  6
CONTINUOUS
 62
     7
100
AcDbEllipse
 10
118.482222
 20
186.03788
 30
0.0
 11
0.0
 21
1.5281792945341377
 31
0.0
210
0.0
220
0.0
230
1.0
 40
0.994855
 41
1.5707963267948968
 42
4.7123889803846826
  0
ELLIPSE
  5
50
102
{ACAD_REACTORS
330
31
102
}
100
AcDbEntity
  8
0
  6
CONTINUOUS
 62
     7
100
AcDbEllipse
 10
118.848384
 20
190.077273
 30
0.0
 11
2.4745541536974112
 21
-2.32385179648539
 31
0.0
210
0.0
220
0.0
230
1.0
 40
0.765839
 41
-3.8454509727774377
 42
-2.4377343344021525
  0
ELLIPSE
  5
51
102
{ACAD_REACTORS
330
31
102
}
100
AcDbEntity
  8
0
  6
CONTINUOUS
 62
     7
100
AcDbEllipse
 10
118.685851
 20
191.06359
 30
0.0
 11
-2.6316402134932182
 21
-1.9148341346294502
 31
0.0
210
0.0
220
0.0
230
1.0
 40
0.675188
 41
-0.6530569657397927
 42
0.9177393610551121
  0
ELLIPSE
  5
52
102
{ACAD_REACTORS
330
31
102
}
100
AcDbEntity
  8
0
  6
CONTINUOUS
 62
     7
100
AcDbEllipse
 10
118.787361
 20
185.347709
 30
0.0
 11
2.3945079055286866
 21
-2.4062496383314183
 31
0.0
210
0.0
220
0.0
230
1.0
 40
0.739614
 41
-3.8454509727774391
 42
-2.4377343344021529
  0
LWPOLYLINE
  5
53
102
{ACAD_REACTORS
330
31
102
}
100
AcDbEntity
  8
0
  6
CONTINUOUS
 62
     7
100
AcDbPolyline
 90
        4
 70
     1
 10
130.015125
 20
184.204065
 10
126.175943
 20
184.204065
 10
126.175943
 20
192.609051
 10
130.015125
 20
192.609051
  0
LWPOLYLINE
  5
54
102
{ACAD_REACTORS
330
31
102
}
100
AcDbEntity
  8
0
  6
CONTINUOUS
 62
     7
100
AcDbPolyline
 90
        4
 70
     1
 10
125.792025
 20
184.204065
 10
124.256352
 20
184.204065
 10
124.256352
 20
192.609051
 10
125.792025
 20
192.609051
  0
LWPOLYLINE
  5
55
102
{ACAD_REACTORS
330
31
102
}
100
AcDbEntity
  8
0
  6
CONTINUOUS
 62
     7
100
AcDbPolyline
 90
        4
 70
     1
 10
129.247289
 20
188.712193
 10
126.559861
 20
188.712193
 10
126.559861
 20
192.150597
 10
129.247289
 20
192.150597
  0
LWPOLYLINE
  5
56
102
{ACAD_REACTORS
330
31
102
}
100
AcDbEntity
  8
0
  6
CONTINUOUS
 62
     7
100
AcDbPolyline
 90
        4
 70
     1
 10
129.247289
 20
184.738927
 10
126.559861
 20
184.738927
 10
126.559861
 20
188.177331
 10
129.247289
 20
188.177331
  0
LWPOLYLINE
  5
57
102
{ACAD_REACTORS
330
31
102
}
100
AcDbEntity
  8
0
  6
CONTINUOUS
 62
     7
100
AcDbPolyline
 90
        4
 70
     1
 10
130.782962
 20
183.745611
 10
123.872434
 20
183.745611
 10
123.872434
 20
193.067504
 10
130.782962
 20
193.067504
  0
LWPOLYLINE
  5
58
102
{ACAD_REACTORS
330
31
102
}
100
AcDbEntity
  8
0
  6
CONTINUOUS
 62
     7
100
AcDbPolyline
 90
        4
 70
     1
 10
136.925653
 20
184.204065
 10
133.086471
 20
184.204065
 10
133.086471
 20
192.609051
 10
136.925653
 20
192.609051
  0
LWPOLYLINE
  5
59
102
{ACAD_REACTORS
330
31
102
}
100
AcDbEntity
  8
0
  6
CONTINUOUS
 62
     7
100
AcDbPolyline
 90
        4
 70
     1
 10
132.702553
 20
184.204065
 10
131.16688
 20
184.204065
 10
131.16688
 20
192.609051
 10
132.702553
 20
192.609051
  0
LWPOLYLINE
  5
5A
102
{ACAD_REACTORS
330
31
102
}
100
AcDbEntity
  8
0
  6
CONTINUOUS
 62
     7
100
AcDbPolyline
 90
        4
 70
     1
 10
136.157817
 20
188.712193
 10
133.470389
 20
188.712193
 10
133.470389
 20
192.150597
 10
136.157817
 20
192.150597
  0
LWPOLYLINE
  5
5B
102
{ACAD_REACTORS
330
31
102
}
100
AcDbEntity
  8
0
  6
CONTINUOUS
 62
     7
100
AcDbPolyline
 90
        4
 70
     1
 10
136.157817
 20
184.738927
 10
133.470389
 20
184.738927
 10
133.470389
 20
188.177331
 10
136.157817
 20
188.177331
  0
LWPOLYLINE
  5
5C
102
{ACAD_REACTORS
330
31
102
}
100
AcDbEntity
  8
0
  6
CONTINUOUS
 62
     7
100
AcDbPolyline
 90
        4
 70
     1
 10
137.69349
 20
183.745611
 10
130.782962
 20
183.745611
 10
130.782962
 20
193.067504
 10
137.69349
 20
193.067504
  0
ELLIPSE
  5
5D
102
{ACAD_REACTORS
330
31
102
}
100
AcDbEntity
  8
0
  6
CONTINUOUS
 62
     7
100
AcDbEllipse
 10
59.628483
 20
190.079171
 30
0.0
 11
-2.4745541536973326
 21
-2.3238517964854712
 31
0.0
210
0.0
220
0.0
230
1.0
 40
0.765839
 41
2.4377343344021525
 42
3.8454509727774377
  0
ELLIPSE
  5
5E
102
{ACAD_REACTORS
330
31
102
}
100
AcDbEntity
  8
0
  6
CONTINUOUS
 62
     7
100
AcDbEllipse
 10
59.636971
 20
186.482461
 30
0.0
 11
2.7242563995001117
 21
-1.8176092163816711
 31
0.0
210
0.0
220
0.0
230
1.0
 40
0.750157
 41
-0.9949201180063838
 42
0.5758762087885209
  0
LINE
  5
5F
102
{ACAD_REACTORS
330
31
102
}
100
AcDbEntity
  8
0
  6
CONTINUOUS
 62
     7
100
AcDbLine
 10
60.846432
 20
193.814767
 30
0.0
 11
47.856626
 21
193.814767
 31
0.0
  0
LINE
  5
60
102
{ACAD_REACTORS
330
31
102
}
100
AcDbEntity
  8
0
  6
CONTINUOUS
 62
     7
100
AcDbLine
 10
47.856626
 20
193.814767
 30
0.0
 11
47.856626
 21
193.069402
 31
0.0
  0
LINE
  5
61
102
{ACAD_REACTORS
330
31
102
}
100
AcDbEntity
  8
0
  6
CONTINUOUS
 62
     7
100
AcDbLine
 10
60.846432
 20
182.753998
 30
0.0
 11
47.856626
 21
182.753998
 31
0.0
  0
LINE
  5
62
102
{ACAD_REACTORS
330
31
102
}
100
AcDbEntity
  8
0
  6
CONTINUOUS
 62
     7
100
AcDbLine
 10
47.856626
 20
182.753998
 30
0.0
 11
47.856626
 21
183.747509
 31
0.0
  0
LINE
  5
63
102
{ACAD_REACTORS
330
31
102
}
100
AcDbEntity
  8
0
  6
CONTINUOUS
 62
     7
100
AcDbLine
 10
117.820973
 20
193.814767
 30
0.0
 11
130.782962
 21
193.814767
 31
0.0
  0
LINE
  5
64
102
{ACAD_REACTORS
330
31
102
}
100
AcDbEntity
  8
0
  6
CONTINUOUS
 62
     7
100
AcDbLine
 10
130.782962
 20
193.814767
 30
0.0
 11
130.782962
 21
193.067504
 31
0.0
  0
LWPOLYLINE
  5
65
102
{ACAD_REACTORS
330
31
102
}
100
AcDbEntity
  8
0
  6
CONTINUOUS
 62
     7
100
AcDbPolyline
 90
        3
 70
     0
 10
117.820973
 20
182.753998
 10
130.782962
 20
182.753998
 10
130.782962
 20
183.745611
  0
LWPOLYLINE
  5
66
102
{ACAD_REACTORS
330
31
102
}
100
AcDbEntity
  8
0
  6
CONTINUOUS
 62
     7
100
AcDbPolyline
 90
        4
 70
     1
 10
123.104597
 20
185.120972
 10
121.568924
 20
185.120972
 10
121.568924
 20
186.954787
 10
123.104597
 20
186.954787
  0
LWPOLYLINE
  5
67
102
{ACAD_REACTORS
330
31
102
}
100
AcDbEntity
  8
0
  6
CONTINUOUS
 62
     7
100
AcDbPolyline
 90
        4
 70
     1
 10
123.104597
 20
189.858328
 10
121.568924
 20
189.858328
 10
121.568924
 20
191.692143
 10
123.104597
 20
191.692143
  0
LINE
  5
68
102
{ACAD_REACTORS
330
31
102
}
100
AcDbEntity
  8
0
  6
CONTINUOUS
 62
     7
100
AcDbLine
 10
119.427556
 20
191.989159
 30
0.0
 11
117.248691
 21
189.851174
 31
0.0
  0
LINE
  5
69
102
{ACAD_REACTORS
330
31
102
}
100
AcDbEntity
  8
0
  6
CONTINUOUS
 62
     7
100
AcDbLine
 10
119.749432
 20
191.65663
 30
0.0
 11
117.542355
 21
189.54245
 31
0.0
  0
LINE
  5
6A
102
{ACAD_REACTORS
330
31
102
}
100
AcDbEntity
  8
0
  6
CONTINUOUS
 62
     7
100
AcDbLine
 10
119.432294
 20
187.218949
 30
0.0
 11
117.252561
 21
185.156261
 31
0.0
  0
LINE
  5
6B
102
{ACAD_REACTORS
330
31
102
}
100
AcDbEntity
  8
0
  6
CONTINUOUS
 62
     7
100
AcDbLine
 10
119.649333
 20
186.801969
 30
0.0
 11
117.556179
 21
184.825905
 31
0.0
  0
LWPOLYLINE
  5
6C
102
{ACAD_REACTORS
330
31
102
}
100
AcDbEntity
  8
0
  6
CONTINUOUS
 62
     7
100
AcDbPolyline
 90
        3
 70
     0
 10
114.351262
 20
190.316782
 10
115.272666
 20
190.316782
 10
115.272666
 20
186.03788
  0
LINE
  5
6D
102
{ACAD_REACTORS
330
31
102
}
100
AcDbEntity
  8
0
  6
CONTINUOUS
 62
     7
100
AcDbLine
 10
115.272666
 20
186.03788
 30
0.0
 11
114.351262
 21
186.03788
 31
0.0
  0
ELLIPSE
  5
6E
102
{ACAD_REACTORS
330
31
102
}
100
AcDbEntity
  8
0
  6
CONTINUOUS
 62
     7
100
AcDbEllipse
 10
85.588649
 20
161.881658
 30
0.0
 11
-17.428968918579635
 21
1.2014184903270289
 31
0.0
210
0.0
220
0.0
230
1.0
 40
0.295787
 41
0.2313125416071442
 42
1.8021088684020596
  0
LWPOLYLINE
  5
6F
102
{ACAD_REACTORS
330
31
102
}
100
AcDbEntity
  8
0
  6
CONTINUOUS
 62
     7
100
AcDbPolyline
 90
        3
 70
     0
 10
40.783377
 20
139.479853
 10
47.467687
 20
136.533657
 10
47.97809
 20
136.338521
  0
LINE
  5
70
102
{ACAD_REACTORS
330
31
102
}
100
AcDbEntity
  8
0
  6
CONTINUOUS
 62
     7
100
AcDbLine
 10
60.06248
 20
161.279284
 30
0.0
 11
54.259897
 21
146.509133
 31
0.0
  0
LINE
  5
71
102
{ACAD_REACTORS
330
31
102
}
100
AcDbEntity
  8
0
  6
CONTINUOUS
 62
     7
100
AcDbLine
 10
53.884646
 20
146.160447
 30
0.0
 11
52.819503
 21
145.875159
 31
0.0
  0
LINE
  5
72
102
{ACAD_REACTORS
330
31
102
}
100
AcDbEntity
  8
0
  6
CONTINUOUS
 62
     7
100
AcDbLine
 10
51.546507
 20
161.428957
 30
0.0
 11
48.535807
 21
153.810327
 31
0.0
  0
LINE
  5
73
102
{ACAD_REACTORS
330
31
102
}
100
AcDbEntity
  8
0
  6
CONTINUOUS
 62
     7
100
AcDbLine
 10
48.535807
 20
153.810327
 30
0.0
 11
55.700732
 21
150.171012
 31
0.0
  0
LINE
  5
74
102
{ACAD_REACTORS
330
31
102
}
100
AcDbEntity
  8
0
  6
CONTINUOUS
 62
     7
100
AcDbLine
 10
47.967646
 20
152.357046
 30
0.0
 11
54.358509
 21
149.098736
 31
0.0
  0
LINE
  5
75
102
{ACAD_REACTORS
330
31
102
}
100
AcDbEntity
  8
0
  6
CONTINUOUS
 62
     7
100
AcDbLine
 10
52.185454
 20
145.399678
 30
0.0
 11
47.590316
 21
135.491064
 31
0.0
  0
ELLIPSE
  5
76
102
{ACAD_REACTORS
330
31
102
}
100
AcDbEntity
  8
0
  6
CONTINUOUS
 62
     7
100
AcDbEllipse
 10
53.55245
 20
146.635857
 30
0.0
 11
0.6929102366413623
 21
-0.3639993473990172
 31
0.0
210
0.0
220
0.0
230
1.0
 40
0.573174
 41
-1.0663871999768206
 42
0.5044091268181274
  0
ELLIPSE
  5
77
102
{ACAD_REACTORS
330
31
102
}
100
AcDbEntity
  8
0
  6
CONTINUOUS
 62
     7
100
AcDbEllipse
 10
52.994543
 20
145.016181
 30
0.0
 11
0.6647416892448886
 21
-0.747073280595563
 31
0.0
210
0.0
220
0.0
230
1.0
 40
0.766095
 41
2.3561944901923213
 42
3.9269908169872689
  0
LINE
  5
78
102
{ACAD_REACTORS
330
31
102
}
100
AcDbEntity
  8
0
  6
CONTINUOUS
 62
     7
100
AcDbLine
 10
46.960307
 20
133.380508
 30
0.0
 11
46.973663
 21
89.722953
 31
0.0
  0
LINE
  5
79
102
{ACAD_REACTORS
330
31
102
}
100
AcDbEntity
  8
0
  6
CONTINUOUS
 62
     7
100
AcDbLine
 10
60.06248
 20
161.279284
 30
0.0
 11
61.12155
 21
163.862964
 31
0.0
  0
LINE
  5
7A
102
{ACAD_REACTORS
330
31
102
}
100
AcDbEntity
  8
0
  6
CONTINUOUS
 62
     7
100
AcDbLine
 10
51.476276
 20
161.251237
 30
0.0
 11
55.696529
 21
166.575269
 31
0.0
  0
LINE
  5
7B
102
{ACAD_REACTORS
330
31
102
}
100
AcDbEntity
  8
0
  6
CONTINUOUS
 62
     7
100
AcDbLine
 10
55.696529
 20
166.575269
 30
0.0
 11
62.103602
 21
163.371975
 31
0.0
  0
LINE
  5
7C
102
{ACAD_REACTORS
330
31
102
}
100
AcDbEntity
  8
0
  6
CONTINUOUS
 62
     7
100
AcDbLine
 10
44.437407
 20
147.506874
 30
0.0
 11
48.027541
 21
152.340322
 31
0.0
  0
LINE
  5
7D
102
{ACAD_REACTORS
330
31
102
}
100
AcDbEntity
  8
0
  6
CONTINUOUS
 62
     7
100
AcDbLine
 10
44.439986
 20
147.510543
 30
0.0
 11
40.783377
 21
139.519568
 31
0.0
  0
LINE
  5
7E
102
{ACAD_REACTORS
330
31
102
}
100
AcDbEntity
  8
0
  6
CONTINUOUS
 62
     7
100
AcDbLine
 10
50.774604
 20
142.357426
 30
0.0
 11
53.848168
 21
149.372741
 31
0.0
  0
LINE
  5
7F
102
{ACAD_REACTORS
330
31
102
}
100
AcDbEntity
  8
0
  6
CONTINUOUS
 62
     7
100
AcDbLine
 10
53.454181
 20
146.045151
 30
0.0
 11
54.378783
 21
148.210719
 31
0.0
  0
LINE
  5
80
102
{ACAD_REACTORS
330
31
102
}
100
AcDbEntity
  8
0
  6
CONTINUOUS
 62
     7
100
AcDbLine
 10
60.589389
 20
160.059345
 30
0.0
 11
62.077745
 21
163.384903
 31
0.0
  0
ELLIPSE
  5
81
102
{ACAD_REACTORS
330
31
102
}
100
AcDbEntity
  8
0
  6
CONTINUOUS
 62
     7
100
AcDbEllipse
 10
47.872919
 20
133.753769
 30
0.0
 11
0.1183893990866219
 21
-1.7758159928863813
 31
0.0
210
0.0
220
0.0
230
1.0
 40
0.533841
 41
-2.9655333493854896
 42
-1.3947370225905573
  0
LINE
  5
82
102
{ACAD_REACTORS
330
31
102
}
100
AcDbEntity
  8
0
  6
CONTINUOUS
 62
     7
100
AcDbLine
 10
59.271371
 20
159.265559
 30
0.0
 11
64.650004
 21
162.50488
 31
0.0
  0
ELLIPSE
  5
83
102
{ACAD_REACTORS
330
31
102
}
100
AcDbEntity
  8
0
  6
CONTINUOUS
 62
     7
100
AcDbEllipse
 10
66.706163
 20
159.769967
 30
0.0
 11
1.1965763817952126
 21
-3.3302066810881503
 31
0.0
210
0.0
220
0.0
230
1.0
 40
0.745751
 41
1.9636429592942453
 42
3.5344392860891332
  0
ELLIPSE
  5
84
102
{ACAD_REACTORS
330
31
102
}
100
AcDbEntity
  8
0
  6
CONTINUOUS
 62
     7
100
AcDbEllipse
 10
85.421365
 20
160.802661
 30
0.0
 11
-18.474246939590991
 21
1.690183419627582
 31
0.0
210
0.0
220
0.0
230
1.0
 40
0.288194
 41
0.2344016960271678
 42
1.8051980228220816
  0
LINE
  5
85
102
{ACAD_REACTORS
330
31
102
}
100
AcDbEntity
  8
0
  6
CONTINUOUS
 62
     7
100
AcDbLine
 10
59.412409
 20
158.371839
 30
0.0
 11
54.593684
 21
146.029659
 31
0.0
  0
LINE
  5
86
102
{ACAD_REACTORS
330
31
102
}
100
AcDbEntity
  8
0
  6
CONTINUOUS
 62
     7
100
AcDbLine
 10
54.232866
 20
145.692296
 30
0.0
 11
53.20869
 21
145.416272
 31
0.0
  0
LINE
  5
87
102
{ACAD_REACTORS
330
31
102
}
100
AcDbEntity
  8
0
  6
CONTINUOUS
 62
     7
100
AcDbLine
 10
52.599028
 20
144.956232
 30
0.0
 11
48.180626
 21
135.369384
 31
0.0
  0
ELLIPSE
  5
88
102
{ACAD_REACTORS
330
31
102
}
100
AcDbEntity
  8
0
  6
CONTINUOUS
 62
     7
100
AcDbEllipse
 10
53.900711
 20
146.164978
 30
0.0
 11
0.6785994583324867
 21
-0.3788189975473511
 31
0.0
210
0.0
220
0.0
230
1.0
 40
0.560173
 41
-1.0420320989279097
 42
0.5287642278670391
  0
ELLIPSE
  5
89
102
{ACAD_REACTORS
330
31
102
}
100
AcDbEntity
  8
0
  6
CONTINUOUS
 62
     7
100
AcDbEllipse
 10
53.396704
 20
144.569486
 30
0.0
 11
0.6670426431073769
 21
-0.7450195381842613
 31
0.0
210
0.0
220
0.0
230
1.0
 40
0.73866
 41
2.3561944901923226
 42
3.9269908169872698
  0
LINE
  5
8A
102
{ACAD_REACTORS
330
31
102
}
100
AcDbEntity
  8
0
  6
CONTINUOUS
 62
     7
100
AcDbLine
 10
47.574848
 20
133.327366
 30
0.0
 11
47.549114
 21
89.78475
 31
0.0
  0
ELLIPSE
  5
8B
102
{ACAD_REACTORS
330
31
102
}
100
AcDbEntity
  8
0
  6
CONTINUOUS
 62
     7
100
AcDbEllipse
 10
48.481025
 20
133.682623
 30
0.0
 11
0.1532127142749594
 21
-1.7217255970170724
 31
0.0
210
0.0
220
0.0
230
1.0
 40
0.547298
 41
-2.982675919884191
 42
-1.4118795930892574
  0
LINE
  5
8C
102
{ACAD_REACTORS
330
31
102
}
100
AcDbEntity
  8
0
  6
CONTINUOUS
 62
     7
100
AcDbLine
 10
59.412409
 20
158.371839
 30
0.0
 11
64.502633
 21
161.292096
 31
0.0
  0
ELLIPSE
  5
8D
102
{ACAD_REACTORS
330
31
102
}
100
AcDbEntity
  8
0
  6
CONTINUOUS
 62
     7
100
AcDbEllipse
 10
66.235124
 20
159.787476
 30
0.0
 11
1.66967971881454
 21
-1.5957646158236538
 31
0.0
210
0.0
220
0.0
230
1.0
 40
0.778046
 41
1.6508583039522391
 42
3.2216546307471261
  0
LWPOLYLINE
  5
8E
102
{ACAD_REACTORS
330
31
102
}
100
AcDbEntity
  8
0
  6
CONTINUOUS
 62
     7
100
AcDbPolyline
 90
        3
 70
     0
 10
138.084265
 20
139.479853
 10
131.399956
 20
136.533657
 10
130.889552
 20
136.338521
  0
LINE
  5
8F
102
{ACAD_REACTORS
330
31
102
}
100
AcDbEntity
  8
0
  6
CONTINUOUS
 62
     7
100
AcDbLine
 10
118.805162
 20
161.279284
 30
0.0
 11
124.607745
 21
146.509133
 31
0.0
  0
LINE
  5
90
102
{ACAD_REACTORS
330
31
102
}
100
AcDbEntity
  8
0
  6
CONTINUOUS
 62
     7
100
AcDbLine
 10
124.982996
 20
146.160447
 30
0.0
 11
126.04814
 21
145.875159
 31
0.0
  0
LINE
  5
91
102
{ACAD_REACTORS
330
31
102
}
100
AcDbEntity
  8
0
  6
CONTINUOUS
 62
     7
100
AcDbLine
 10
127.321136
 20
161.428957
 30
0.0
 11
130.521818
 21
153.332422
 31
0.0
  0
LINE
  5
92
102
{ACAD_REACTORS
330
31
102
}
100
AcDbEntity
  8
0
  6
CONTINUOUS
 62
     7
100
AcDbLine
 10
130.521818
 20
153.332422
 30
0.0
 11
123.356894
 21
149.693106
 31
0.0
  0
LINE
  5
93
102
{ACAD_REACTORS
330
31
102
}
100
AcDbEntity
  8
0
  6
CONTINUOUS
 62
     7
100
AcDbLine
 10
130.909782
 20
152.324222
 30
0.0
 11
124.518919
 21
149.065913
 31
0.0
  0
LINE
  5
94
102
{ACAD_REACTORS
330
31
102
}
100
AcDbEntity
  8
0
  6
CONTINUOUS
 62
     7
100
AcDbLine
 10
126.682188
 20
145.399678
 30
0.0
 11
131.277326
 21
135.491064
 31
0.0
  0
ELLIPSE
  5
95
102
{ACAD_REACTORS
330
31
102
}
100
AcDbEntity
  8
0
  6
CONTINUOUS
 62
     7
100
AcDbEllipse
 10
125.315192
 20
146.635857
 30
0.0
 11
-0.6929102366413623
 21
-0.3639993473990175
 31
0.0
210
0.0
220
0.0
230
1.0
 40
0.573174
 41
-0.5044091268181238
 42
1.0663871999768253
  0
ELLIPSE
  5
96
102
{ACAD_REACTORS
330
31
102
}
100
AcDbEntity
  8
0
  6
CONTINUOUS
 62
     7
100
AcDbEllipse
 10
125.873099
 20
145.016181
 30
0.0
 11
-0.6647416892449101
 21
-0.7470732805955446
 31
0.0
210
0.0
220
0.0
230
1.0
 40
0.766095
 41
-3.9269908169872685
 42
-2.3561944901923217
  0
LINE
  5
97
102
{ACAD_REACTORS
330
31
102
}
100
AcDbEntity
  8
0
  6
CONTINUOUS
 62
     7
100
AcDbLine
 10
131.907335
 20
133.380508
 30
0.0
 11
131.907335
 21
85.113465
 31
0.0
  0
LINE
  5
98
102
{ACAD_REACTORS
330
31
102
}
100
AcDbEntity
  8
0
  6
CONTINUOUS
 62
     7
100
AcDbLine
 10
118.805162
 20
161.279284
 30
0.0
 11
118.001263
 21
163.410911
 31
0.0
  0
LINE
  5
99
102
{ACAD_REACTORS
330
31
102
}
100
AcDbEntity
  8
0
  6
CONTINUOUS
 62
     7
100
AcDbLine
 10
127.391367
 20
161.251237
 30
0.0
 11
123.63506
 21
166.227596
 31
0.0
  0
LINE
  5
9A
102
{ACAD_REACTORS
330
31
102
}
100
AcDbEntity
  8
0
  6
CONTINUOUS
 62
     7
100
AcDbLine
 10
123.738434
 20
166.279279
 30
0.0
 11
117.331361
 21
163.075985
 31
0.0
  0
LINE
  5
9B
102
{ACAD_REACTORS
330
31
102
}
100
AcDbEntity
  8
0
  6
CONTINUOUS
 62
     7
100
AcDbLine
 10
134.430236
 20
147.506874
 30
0.0
 11
130.856486
 21
152.29705
 31
0.0
  0
LINE
  5
9C
102
{ACAD_REACTORS
330
31
102
}
100
AcDbEntity
  8
0
  6
CONTINUOUS
 62
     7
100
AcDbLine
 10
134.427656
 20
147.510543
 30
0.0
 11
138.084265
 21
139.519568
 31
0.0
  0
LINE
  5
9D
102
{ACAD_REACTORS
330
31
102
}
100
AcDbEntity
  8
0
  6
CONTINUOUS
 62
     7
100
AcDbLine
 10
128.093039
 20
142.357426
 30
0.0
 11
125.038886
 21
149.331012
 31
0.0
  0
LINE
  5
9E
102
{ACAD_REACTORS
330
31
102
}
100
AcDbEntity
  8
0
  6
CONTINUOUS
 62
     7
100
AcDbLine
 10
125.720551
 20
145.9629
 30
0.0
 11
124.357473
 21
149.153053
 31
0.0
  0
LINE
  5
9F
102
{ACAD_REACTORS
330
31
102
}
100
AcDbEntity
  8
0
  6
CONTINUOUS
 62
     7
100
AcDbLine
 10
118.594143
 20
159.797049
 30
0.0
 11
117.381603
 21
162.823047
 31
0.0
  0
ELLIPSE
  5
A0
102
{ACAD_REACTORS
330
31
102
}
100
AcDbEntity
  8
0
  6
CONTINUOUS
 62
     7
100
AcDbEllipse
 10
130.994723
 20
133.753769
 30
0.0
 11
-0.1183893990866184
 21
-1.7758159928863786
 31
0.0
210
0.0
220
0.0
230
1.0
 40
0.533841
 41
1.3947370225905575
 42
2.9655333493854905
  0
LINE
  5
A1
102
{ACAD_REACTORS
330
31
102
}
100
AcDbEntity
  8
0
  6
CONTINUOUS
 62
     7
100
AcDbLine
 10
119.596272
 20
159.265559
 30
0.0
 11
114.160335
 21
162.530767
 31
0.0
  0
ELLIPSE
  5
A2
102
{ACAD_REACTORS
330
31
102
}
100
AcDbEntity
  8
0
  6
CONTINUOUS
 62
     7
100
AcDbEllipse
 10
112.841902
 20
159.778393
 30
0.0
 11
-0.2149537664688001
 21
-3.4149061765146858
 31
0.0
210
0.0
220
0.0
230
1.0
 40
0.61793
 41
-3.7610482823703681
 42
-2.1902519555754805
  0
ELLIPSE
  5
A3
102
{ACAD_REACTORS
330
31
102
}
100
AcDbEntity
  8
0
  6
CONTINUOUS
 62
     7
100
AcDbEllipse
 10
93.08162
 20
160.834502
 30
0.0
 11
18.870831043668222
 21
1.0808919267357076
 31
0.0
210
0.0
220
0.0
230
1.0
 40
0.291881
 41
-1.8037134813631659
 42
-0.2329171545683711
  0
LINE
  5
A4
102
{ACAD_REACTORS
330
31
102
}
100
AcDbEntity
  8
0
  6
CONTINUOUS
 62
     7
100
AcDbLine
 10
119.455233
 20
158.371839
 30
0.0
 11
124.273958
 21
146.029659
 31
0.0
  0
LINE
  5
A5
102
{ACAD_REACTORS
330
31
102
}
100
AcDbEntity
  8
0
  6
CONTINUOUS
 62
     7
100
AcDbLine
 10
124.634776
 20
145.692296
 30
0.0
 11
125.658953
 21
145.416272
 31
0.0
  0
LINE
  5
A6
102
{ACAD_REACTORS
330
31
102
}
100
AcDbEntity
  8
0
  6
CONTINUOUS
 62
     7
100
AcDbLine
 10
126.268615
 20
144.956232
 30
0.0
 11
130.687017
 21
135.369384
 31
0.0
  0
ELLIPSE
  5
A7
102
{ACAD_REACTORS
330
31
102
}
100
AcDbEntity
  8
0
  6
CONTINUOUS
 62
     7
100
AcDbEllipse
 10
124.966932
 20
146.164978
 30
0.0
 11
-0.6785994583324941
 21
-0.3788189975473366
 31
0.0
210
0.0
220
0.0
230
1.0
 40
0.560173
 41
-0.5287642278670373
 42
1.0420320989279126
  0
ELLIPSE
  5
A8
102
{ACAD_REACTORS
330
31
102
}
100
AcDbEntity
  8
0
  6
CONTINUOUS
 62
     7
100
AcDbEllipse
 10
125.470939
 20
144.569486
 30
0.0
 11
-0.6670426431073867
 21
-0.7450195381842526
 31
0.0
210
0.0
220
0.0
230
1.0
 40
0.73866
 41
-3.9269908169872698
 42
-2.3561944901923226
  0
LINE
  5
A9
102
{ACAD_REACTORS
330
31
102
}
100
AcDbEntity
  8
0
  6
CONTINUOUS
 62
     7
100
AcDbLine
 10
131.292794
 20
133.327366
 30
0.0
 11
131.158935
 21
85.690576
 31
0.0
  0
ELLIPSE
  5
AA
102
{ACAD_REACTORS
330
31
102
}
100
AcDbEntity
  8
0
  6
CONTINUOUS
 62
     7
100
AcDbEllipse
 10
130.386617
 20
133.682623
 30
0.0
 11
-0.1532127142749613
 21
-1.7217255970170646
 31
0.0
210
0.0
220
0.0
230
1.0
 40
0.547298
 41
1.4118795930892598
 42
2.9826759198841937
  0
LINE
  5
AB
102
{ACAD_REACTORS
330
31
102
}
100
AcDbEntity
  8
0
  6
CONTINUOUS
 62
     7
100
AcDbLine
 10
119.455233
 20
158.371839
 30
0.0
 11
114.134165
 21
161.292096
 31
0.0
  0
ELLIPSE
  5
AC
102
{ACAD_REACTORS
330
31
102
}
100
AcDbEntity
  8
0
  6
CONTINUOUS
 62
     7
100
AcDbEllipse
 10
112.92295
 20
158.925864
 30
0.0
 11
-0.9516202858990357
 21
-2.6235400583644597
 31
0.0
210
0.0
220
0.0
230
1.0
 40
0.741308
 41
-3.5498294610764343
 42
-1.9790331342815461
  0
ELLIPSE
  5
AD
102
{ACAD_REACTORS
330
31
102
}
100
AcDbEntity
  8
0
  6
CONTINUOUS
 62
     7
100
AcDbEllipse
 10
93.208391
 20
162.071439
 30
0.0
 11
18.488103394547558
 21
1.0711557703322336
 31
0.0
210
0.0
220
0.0
230
1.0
 40
0.291069
 41
-1.8040430282606055
 42
-0.2332467014657407
  0
LINE
  5
AE
102
{ACAD_REACTORS
330
31
102
}
100
AcDbEntity
  8
0
  6
CONTINUOUS
 62
     7
100
AcDbLine
 10
48.301824
 20
129.317245
 30
0.0
 11
89.238434
 21
129.391542
 31
0.0
  0
LINE
  5
AF
102
{ACAD_REACTORS
330
31
102
}
100
AcDbEntity
  8
0
  6
CONTINUOUS
 62
     7
100
AcDbLine
 10
47.280755
 20
129.317245
 30
0.0
 11
48.558927
 21
129.317245
 31
0.0
  0
LINE
  5
B0
102
{ACAD_REACTORS
330
31
102
}
100
AcDbEntity
  8
0
  6
CONTINUOUS
 62
     7
100
AcDbLine
 10
47.882971
 20
129.391542
 30
0.0
 11
49.111983
 21
129.391542
 31
0.0
  0
LWPOLYLINE
  5
B1
102
{ACAD_REACTORS
330
31
102
}
100
AcDbEntity
  8
0
  6
CONTINUOUS
 62
     7
100
AcDbPolyline
 90
        3
 70
     0
 10
48.026355
 20
88.079599
 10
58.677794
 20
84.165118
 10
60.808081
 20
83.382133
  0
LINE
  5
B2
102
{ACAD_REACTORS
330
31
102
}
100
AcDbEntity
  8
0
  6
CONTINUOUS
 62
     7
100
AcDbLine
 10
48.558927
 20
88.810828
 30
0.0
 11
60.275509
 21
84.426113
 31
0.0
  0
LINE
  5
B3
102
{ACAD_REACTORS
330
31
102
}
100
AcDbEntity
  8
0
  6
CONTINUOUS
 62
     7
100
AcDbLine
 10
60.541795
 20
83.382133
 30
0.0
 11
72.293629
 21
83.382133
 31
0.0
  0
LWPOLYLINE
  5
B4
102
{ACAD_REACTORS
330
31
102
}
100
AcDbEntity
  8
0
  6
CONTINUOUS
 62
     7
100
AcDbPolyline
 90
        3
 70
     0
 10
60.275509
 20
84.426113
 10
73.159296
 20
84.426113
 10
71.358826
 20
84.420932
  0
LINE
  5
B5
102
{ACAD_REACTORS
330
31
102
}
100
AcDbEntity
  8
0
  6
CONTINUOUS
 62
     7
100
AcDbLine
 10
131.586888
 20
129.317245
 30
0.0
 11
130.308715
 21
129.317245
 31
0.0
  0
ELLIPSE
  5
B6
102
{ACAD_REACTORS
330
31
102
}
100
AcDbEntity
  8
0
  6
CONTINUOUS
 62
     7
100
AcDbEllipse
 10
129.530325
 20
86.812205
 30
0.0
 11
1.3017725263594835
 21
-3.3766217776760841
 31
0.0
210
0.0
220
0.0
230
1.0
 40
0.601248
 41
-0.3721752868903156
 42
0.830824468687468
  0
LINE
  5
B7
102
{ACAD_REACTORS
330
31
102
}
100
AcDbEntity
  8
0
  6
CONTINUOUS
 62
     7
100
AcDbLine
 10
130.002875
 20
129.391542
 30
0.0
 11
89.300678
 21
129.391542
 31
0.0
  0
LINE
  5
B8
102
{ACAD_REACTORS
330
31
102
}
100
AcDbEntity
  8
0
  6
CONTINUOUS
 62
     7
100
AcDbLine
 10
130.984672
 20
129.391542
 30
0.0
 11
129.75566
 21
129.391542
 31
0.0
  0
ELLIPSE
  5
B9
102
{ACAD_REACTORS
330
31
102
}
100
AcDbEntity
  8
0
  6
CONTINUOUS
 62
     7
100
AcDbEllipse
 10
130.298273
 20
85.383487
 30
0.0
 11
-0.474124821426085
 21
-0.9999964442745321
 31
0.0
210
0.0
220
0.0
230
1.0
 40
0.719148
 41
0.439103648396921
 42
2.1943173145047128
  0
LINE
  5
BA
102
{ACAD_REACTORS
330
31
102
}
100
AcDbEntity
  8
0
  6
CONTINUOUS
 62
     7
100
AcDbLine
 10
130.197084
 20
83.382133
 30
0.0
 11
110.094389
 21
83.382133
 31
0.0
  0
LINE
  5
BB
102
{ACAD_REACTORS
330
31
102
}
100
AcDbEntity
  8
0
  6
CONTINUOUS
 62
     7
100
AcDbLine
 10
130.174856
 20
84.333402
 30
0.0
 11
109.036353
 21
84.190088
 31
0.0
  0
LINE
  5
BC
102
{ACAD_REACTORS
330
31
102
}
100
AcDbEntity
  8
0
  6
CONTINUOUS
 62
     7
100
AcDbLine
 10
51.62658
 20
86.75649
 30
0.0
 11
51.521884
 21
122.337115
 31
0.0
  0
LINE
  5
BD
102
{ACAD_REACTORS
330
31
102
}
100
AcDbEntity
  8
0
  6
CONTINUOUS
 62
     7
100
AcDbLine
 10
127.69627
 20
83.382133
 30
0.0
 11
127.88177
 21
122.337115
 31
0.0
  0
LINE
  5
BE
102
{ACAD_REACTORS
330
31
102
}
100
AcDbEntity
  8
0
  6
CONTINUOUS
 62
     7
100
AcDbLine
 10
52.960416
 20
123.779892
 30
0.0
 11
126.542048
 21
123.779892
 31
0.0
  0
ELLIPSE
  5
BF
102
{ACAD_REACTORS
330
31
102
}
100
AcDbEntity
  8
0
  6
CONTINUOUS
 62
     7
100
AcDbEllipse
 10
126.48906
 20
122.191746
 30
0.0
 11
0.0
 21
-1.5892867979551912
 31
0.0
210
0.0
220
0.0
230
1.0
 40
0.88
 41
1.6623921871218474
 42
3.1036963655873553
  0
LINE
  5
C0
102
{ACAD_REACTORS
330
31
102
}
100
AcDbEntity
  8
0
  6
CONTINUOUS
 62
     7
100
AcDbLine
 10
109.036353
 20
83.959244
 30
0.0
 11
109.036353
 21
88.57613
 31
0.0
  0
LINE
  5
C1
102
{ACAD_REACTORS
330
31
102
}
100
AcDbEntity
  8
0
  6
CONTINUOUS
 62
     7
100
AcDbLine
 10
73.159296
 20
84.247799
 30
0.0
 11
73.231557
 21
88.287543
 31
0.0
  0
LINE
  5
C2
102
{ACAD_REACTORS
330
31
102
}
100
AcDbEntity
  8
0
  6
CONTINUOUS
 62
     7
100
AcDbLine
 10
74.024962
 20
89.153241
 30
0.0
 11
108.363057
 21
89.153241
 31
0.0
  0
ELLIPSE
  5
C3
102
{ACAD_REACTORS
330
31
102
}
100
AcDbEntity
  8
0
  6
CONTINUOUS
 62
     7
100
AcDbEllipse
 10
71.995109
 20
84.56819
 30
0.0
 11
-1.0227020897923016
 21
1.1079272844981252
 31
0.0
210
0.0
220
0.0
230
1.0
 40
0.577111
 41
2.3183541357829007
 42
3.9648311713966859
  0
ELLIPSE
  5
C4
102
{ACAD_REACTORS
330
31
102
}
100
AcDbEntity
  8
0
  6
CONTINUOUS
 62
     7
100
AcDbEllipse
 10
109.873125
 20
83.898061
 30
0.0
 11
-0.8497366731361719
 21
-0.0787602272831579
 31
0.0
210
0.0
220
0.0
230
1.0
 40
0.663062
 41
-0.2466396093297532
 42
1.8668913225065871
  0
ELLIPSE
  5
C5
102
{ACAD_REACTORS
330
31
102
}
100
AcDbEntity
  8
0
  6
CONTINUOUS
 62
     7
100
AcDbEllipse
 10
74.491384
 20
87.430611
 30
0.0
 11
1.060937780790159
 21
-1.6377348034267734
 31
0.0
210
0.0
220
0.0
230
1.0
 40
0.568356
 41
2.6277597188478281
 42
4.198556045642718
  0
ELLIPSE
  5
C6
102
{ACAD_REACTORS
330
31
102
}
100
AcDbEntity
  8
0
  6
CONTINUOUS
 62
     7
100
AcDbEllipse
 10
107.513798
 20
87.754091
 30
0.0
 11
1.348110017339617
 21
1.2387688964133561
 31
0.0
210
0.0
220
0.0
230
1.0
 40
0.592951
 41
-0.627480035513769
 42
0.8936984428052666
  0
LINE
  5
C7
102
{ACAD_REACTORS
330
31
102
}
100
AcDbEntity
  8
0
  6
CONTINUOUS
 62
     7
100
AcDbLine
 10
73.236435
 20
88.305824
 30
0.0
 11
75.274572
 21
86.267687
 31
0.0
  0
LINE
  5
C8
102
{ACAD_REACTORS
330
31
102
}
100
AcDbEntity
  8
0
  6
CONTINUOUS
 62
     7
100
AcDbLine
 10
73.169731
 20
84.831175
 30
0.0
 11
74.602073
 21
83.798295
 31
0.0
  0
LINE
  5
C9
102
{ACAD_REACTORS
330
31
102
}
100
AcDbEntity
  8
0
  6
CONTINUOUS
 62
     7
100
AcDbLine
 10
75.274572
 20
86.267687
 30
0.0
 11
75.274572
 21
84.238909
 31
0.0
  0
ELLIPSE
  5
CA
102
{ACAD_REACTORS
330
31
102
}
100
AcDbEntity
  8
0
  6
CONTINUOUS
 62
     7
100
AcDbEllipse
 10
75.190706
 20
84.11667
 30
0.0
 11
0.0
 21
-0.3882708722525157
 31
0.0
210
0.0
220
0.0
230
1.0
 40
0.22757
 41
6.1524061588346495
 42
1.8910734126456041
  0
ELLIPSE
  5
CB
102
{ACAD_REACTORS
330
31
102
}
100
AcDbEntity
  8
0
  6
CONTINUOUS
 62
     7
100
AcDbEllipse
 10
74.941806
 20
83.837488
 30
0.0
 11
-0.4089488885878263
 21
-0.0646534648415105
 31
0.0
210
0.0
220
0.0
230
1.0
 40
0.431043
 41
-0.3500796400637802
 42
2.1829980193250949
  0
ELLIPSE
  5
CC
102
{ACAD_REACTORS
330
31
102
}
100
AcDbEntity
  8
0
  6
CONTINUOUS
 62
     7
100
AcDbEllipse
 10
108.808532
 20
84.883473
 30
0.0
 11
-1.1479909444983751
 21
-1.0079382584440852
 31
0.0
210
0.0
220
0.0
230
1.0
 40
0.57699
 41
-0.6974722574609181
 42
0.8733240693339771
  0
LWPOLYLINE
  5
CD
102
{ACAD_REACTORS
330
31
102
}
100
AcDbEntity
  8
0
  6
CONTINUOUS
 62
     7
100
AcDbPolyline
 90
        3
 70
     0
 10
108.074501
 20
85.113465
 10
108.074501
 20
88.606174
 10
108.105256
 20
89.128755
  0
LINE
  5
CE
102
{ACAD_REACTORS
330
31
102
}
100
AcDbEntity
  8
0
  6
CONTINUOUS
 62
     7
100
AcDbLine
 10
107.555102
 20
89.153241
 30
0.0
 11
107.55613
 21
84.498997
 31
0.0
  0
ELLIPSE
  5
CF
102
{ACAD_REACTORS
330
31
102
}
100
AcDbEntity
  8
0
  6
CONTINUOUS
 62
     7
100
AcDbEllipse
 10
110.017666
 20
86.281695
 30
0.0
 11
-2.0786298167134043
 21
-2.2139223904884249
 31
0.0
210
0.0
220
0.0
230
1.0
 40
0.292085
 41
-0.7692510577674194
 42
0.8015452690274724
  0
LINE
  5
D0
102
{ACAD_REACTORS
330
31
102
}
100
AcDbEntity
  8
0
  6
CONTINUOUS
 62
     7
100
AcDbLine
 10
108.339939
 20
83.742199
 30
0.0
 11
109.097899
 21
83.742199
 31
0.0
  0
ELLIPSE
  5
D1
102
{ACAD_REACTORS
330
31
102
}
100
AcDbEntity
  8
0
  6
CONTINUOUS
 62
     7
100
AcDbEllipse
 10
53.535052
 20
121.694473
 30
0.0
 11
1.7502592244084771
 21
-1.8969836633214199
 31
0.0
210
0.0
220
0.0
230
1.0
 40
0.575851
 41
2.411018454961753
 42
3.9201890810602413
  0
ELLIPSE
  5
D2
102
{ACAD_REACTORS
330
31
102
}
100
AcDbEntity
  8
0
  6
CONTINUOUS
 62
     7
100
AcDbEllipse
 10
49.37211
 20
90.742121
 30
0.0
 11
-2.0636568498725394
 21
-2.4432898682612985
 31
0.0
210
0.0
220
0.0
230
1.0
 40
0.535226
 41
-0.7563288310561551
 42
0.4466709245216078
  0
ELLIPSE
  5
D3
102
{ACAD_REACTORS
330
31
102
}
100
AcDbEntity
  8
0
  6
CONTINUOUS
 62
     7
100
AcDbEllipse
 10
48.227771
 20
89.579648
 30
0.0
 11
0.6002332848226012
 21
-0.6991652574665295
 31
0.0
210
0.0
220
0.0
230
1.0
 40
0.543713
 41
-2.2765681974550138
 42
-0.5213545313472033
  0
LINE
  5
D4
102
{ACAD_REACTORS
330
31
102
}
100
AcDbEntity
  8
0
  6
CONTINUOUS
 62
     7
100
AcDbLine
 10
46.972696
 20
92.885164
 30
0.0
 11
43.784354
 21
91.846692
 31
0.0
  0
LINE
  5
D5
102
{ACAD_REACTORS
330
31
102
}
100
AcDbEntity
  8
0
  6
CONTINUOUS
 62
     7
100
AcDbLine
 10
46.973261
 20
91.038445
 30
0.0
 11
43.987013
 21
90.457786
 31
0.0
  0
LINE
  5
D6
102
{ACAD_REACTORS
330
31
102
}
100
AcDbEntity
  8
0
  6
CONTINUOUS
 62
     7
100
AcDbLine
 10
47.402414
 20
90.187237
 30
0.0
 11
44.290651
 21
89.583755
 31
0.0
  0
LWPOLYLINE
  5
D7
102
{ACAD_REACTORS
330
31
102
}
100
AcDbEntity
  8
0
  6
CONTINUOUS
 62
     7
100
AcDbPolyline
 90
        3
 70
     0
 10
43.784354
 20
91.846692
 10
44.038886
 20
90.467847
 10
44.29177
 20
89.583972
  0
LINE
  5
D8
102
{ACAD_REACTORS
330
31
102
}
100
AcDbEntity
  8
0
  6
CONTINUOUS
 62
     7
100
AcDbLine
 10
46.972496
 20
93.539223
 30
0.0
 11
44.594289
 21
92.749463
 31
0.0
  0
ELLIPSE
  5
D9
102
{ACAD_REACTORS
330
31
102
}
100
AcDbEntity
  8
0
  6
CONTINUOUS
 62
     7
100
AcDbEllipse
 10
45.07465
 20
92.235366
 30
0.0
 11
-0.1504835952999253
 21
0.4311463304285531
 31
0.0
210
0.0
220
0.0
230
1.0
 40
0.471087
 41
-0.3343070816698436
 42
1.5416661335626731
  0
LINE
  5
DA
102
{ACAD_REACTORS
330
31
102
}
100
AcDbEntity
  8
0
  6
CONTINUOUS
 62
     7
100
AcDbLine
 10
46.972578
 20
93.269928
 30
0.0
 11
44.999182
 21
92.665903
 31
0.0
  0
ELLIPSE
  5
DB
102
{ACAD_REACTORS
330
31
102
}
100
AcDbEntity
  8
0
  6
CONTINUOUS
 62
     7
100
AcDbEllipse
 10
44.988487
 20
92.717673
 30
0.0
 11
-0.2248937141065828
 21
1.1935720034393158
 31
0.0
210
0.0
220
0.0
230
1.0
 40
0.315261
 41
-0.0859220180342996
 42
1.4848743087606135
  0
LINE
  5
DC
102
{ACAD_REACTORS
330
31
102
}
100
AcDbEntity
  8
0
  6
CONTINUOUS
 62
     7
100
AcDbLine
 10
46.972142
 20
94.693457
 30
0.0
 11
44.796715
 21
93.912927
 31
0.0
  0
ELLIPSE
  5
DD
102
{ACAD_REACTORS
330
31
102
}
100
AcDbEntity
  8
0
  6
CONTINUOUS
 62
     7
100
AcDbEllipse
 10
45.610561
 20
93.761741
 30
0.0
 11
0.6840470413600729
 21
-0.6933886226679124
 31
0.0
210
0.0
220
0.0
230
1.0
 40
0.658813
 41
2.377044469937668
 42
3.947840796732605
  0
LINE
  5
DE
102
{ACAD_REACTORS
330
31
102
}
100
AcDbEntity
  8
0
  6
CONTINUOUS
 62
     7
100
AcDbLine
 10
45.391028
 20
94.567042
 30
0.0
 11
46.971989
 21
95.155194
 31
0.0
  0
LINE
  5
DF
102
{ACAD_REACTORS
330
31
102
}
100
AcDbEntity
  8
0
  6
CONTINUOUS
 62
     7
100
AcDbLine
 10
46.406896
 20
89.99433
 30
0.0
 11
47.337669
 21
85.115687
 31
0.0
  0
LWPOLYLINE
  5
E0
102
{ACAD_REACTORS
330
31
102
}
100
AcDbEntity
  8
0
  6
CONTINUOUS
 62
     7
100
AcDbPolyline
 90
        3
 70
     0
 10
49.863494
 20
87.782088
 10
50.363417
 20
85.838127
 10
50.315952
 20
85.918151
  0
LINE
  5
E1
102
{ACAD_REACTORS
330
31
102
}
100
AcDbEntity
  8
0
  6
CONTINUOUS
 62
     7
100
AcDbLine
 10
47.327034
 20
85.113465
 30
0.0
 11
50.341798
 21
85.743327
 31
0.0
  0
LINE
  5
E2
102
{ACAD_REACTORS
330
31
102
}
100
AcDbEntity
  8
0
  6
CONTINUOUS
 62
     7
100
AcDbLine
 10
47.279217
 20
85.422063
 30
0.0
 11
50.231769
 21
86.314585
 31
0.0
  0
LINE
  5
E3
102
{ACAD_REACTORS
330
31
102
}
100
AcDbEntity
  8
0
  6
CONTINUOUS
 62
     7
100
AcDbLine
 10
47.171965
 20
85.978902
 30
0.0
 11
50.124517
 21
86.871424
 31
0.0
  0
LINE
  5
E4
102
{ACAD_REACTORS
330
31
102
}
100
AcDbEntity
  8
0
  6
CONTINUOUS
 62
     7
100
AcDbLine
 10
47.065813
 20
86.53003
 30
0.0
 11
50.018365
 21
87.422552
 31
0.0
  0
LINE
  5
E5
102
{ACAD_REACTORS
330
31
102
}
100
AcDbEntity
  8
0
  6
CONTINUOUS
 62
     7
100
AcDbLine
 10
46.976498
 20
87.008762
 30
0.0
 11
49.237073
 21
87.634651
 31
0.0
  0
LINE
  5
E6
102
{ACAD_REACTORS
330
31
102
}
100
AcDbEntity
  8
0
  6
CONTINUOUS
 62
     7
100
AcDbLine
 10
46.892814
 20
87.447393
 30
0.0
 11
48.557709
 21
87.884322
 31
0.0
  0
LINE
  5
E7
102
{ACAD_REACTORS
330
31
102
}
100
AcDbEntity
  8
0
  6
CONTINUOUS
 62
     7
100
AcDbLine
 10
131.907335
 20
85.113465
 30
0.0
 11
135.775822
 21
85.113465
 31
0.0
  0
LINE
  5
E8
102
{ACAD_REACTORS
330
31
102
}
100
AcDbEntity
  8
0
  6
CONTINUOUS
 62
     7
100
AcDbLine
 10
131.907335
 20
86.267687
 30
0.0
 11
135.775822
 21
86.267687
 31
0.0
  0
LINE
  5
E9
102
{ACAD_REACTORS
330
31
102
}
100
AcDbEntity
  8
0
  6
CONTINUOUS
 62
     7
100
AcDbLine
 10
134.044489
 20
86.267687
 30
0.0
 11
135.775822
 21
86.267687
 31
0.0
  0
LINE
  5
EA
102
{ACAD_REACTORS
330
31
102
}
100
AcDbEntity
  8
0
  6
CONTINUOUS
 62
     7
100
AcDbLine
 10
135.775822
 20
86.267687
 30
0.0
 11
135.775822
 21
85.113465
 31
0.0
  0
LINE
  5
EB
102
{ACAD_REACTORS
330
31
102
}
100
AcDbEntity
  8
0
  6
CONTINUOUS
 62
     7
100
AcDbLine
 10
66.220493
 20
162.8128
 30
0.0
 11
116.442609
 21
162.734873
 31
0.0
  0
LINE
  5
EC
102
{ACAD_REACTORS
330
31
102
}
100
AcDbEntity
  8
0
  6
CONTINUOUS
 62
     7
100
AcDbLine
 10
68.846049
 20
161.359035
 30
0.0
 11
94.083939
 21
161.359035
 31
0.0
  0
LINE
  5
ED
102
{ACAD_REACTORS
330
31
102
}
100
AcDbEntity
  8
0
  6
CONTINUOUS
 62
     7
100
AcDbLine
 10
76.898755
 20
162.796232
 30
0.0
 11
76.898755
 21
161.342466
 31
0.0
  0
LINE
  5
EE
102
{ACAD_REACTORS
330
31
102
}
100
AcDbEntity
  8
0
  6
CONTINUOUS
 62
     7
100
AcDbLine
 10
78.578321
 20
162.793625
 30
0.0
 11
78.578321
 21
161.33986
 31
0.0
  0
LINE
  5
EF
102
{ACAD_REACTORS
330
31
102
}
100
AcDbEntity
  8
0
  6
CONTINUOUS
 62
     7
100
AcDbLine
 10
90.724665
 20
162.774779
 30
0.0
 11
90.724665
 21
161.321013
 31
0.0
  0
LINE
  5
F0
102
{ACAD_REACTORS
330
31
102
}
100
AcDbEntity
  8
0
  6
CONTINUOUS
 62
     7
100
AcDbLine
 10
92.469043
 20
162.772072
 30
0.0
 11
92.469043
 21
161.318306
 31
0.0
  0
LINE
  5
F1
102
{ACAD_REACTORS
330
31
102
}
100
AcDbEntity
  8
0
  6
CONTINUOUS
 62
     7
100
AcDbLine
 10
105.261147
 20
162.752223
 30
0.0
 11
105.261147
 21
161.298458
 31
0.0
  0
LINE
  5
F2
102
{ACAD_REACTORS
330
31
102
}
100
AcDbEntity
  8
0
  6
CONTINUOUS
 62
     7
100
AcDbLine
 10
106.876111
 20
162.749717
 30
0.0
 11
106.876111
 21
161.295952
 31
0.0
  0
LWPOLYLINE
  5
F3
102
{ACAD_REACTORS
330
31
102
}
100
AcDbEntity
  8
0
  6
CONTINUOUS
 62
     7
100
AcDbPolyline
 90
        3
 70
     0
 10
94.083939
 20
161.433773
 10
94.083939
 20
161.934012
 10
101.836748
 20
161.943945
  0
LINE
  5
F4
102
{ACAD_REACTORS
330
31
102
}
100
AcDbEntity
  8
0
  6
CONTINUOUS
 62
     7
100
AcDbLine
 10
101.836748
 20
161.869207
 30
0.0
 11
101.836748
 21
161.359035
 31
0.0
  0
LINE
  5
F5
102
{ACAD_REACTORS
330
31
102
}
100
AcDbEntity
  8
0
  6
CONTINUOUS
 62
     7
100
AcDbLine
 10
101.836748
 20
161.359035
 30
0.0
 11
110.960056
 21
161.359035
 31
0.0
  0
LINE
  5
F6
102
{ACAD_REACTORS
330
31
102
}
100
AcDbEntity
  8
0
  6
CONTINUOUS
 62
     7
100
AcDbLine
 10
116.442609
 20
162.734873
 30
0.0
 11
116.442609
 21
161.284261
 31
0.0
  0
LINE
  5
F7
102
{ACAD_REACTORS
330
31
102
}
100
AcDbEntity
  8
0
  6
CONTINUOUS
 62
     7
100
AcDbLine
 10
95.634501
 20
156.846442
 30
0.0
 11
95.634501
 21
153.680964
 31
0.0
  0
LINE
  5
F8
102
{ACAD_REACTORS
330
31
102
}
100
AcDbEntity
  8
0
  6
CONTINUOUS
 62
     7
100
AcDbLine
 10
99.86386
 20
157.440636
 30
0.0
 11
99.86386
 21
153.754172
 31
0.0
  0
LINE
  5
F9
102
{ACAD_REACTORS
330
31
102
}
100
AcDbEntity
  8
0
  6
CONTINUOUS
 62
     7
100
AcDbLine
 10
95.634501
 20
153.680964
 30
0.0
 11
99.845452
 21
153.680964
 31
0.0
  0
ELLIPSE
  5
FA
102
{ACAD_REACTORS
330
31
102
}
100
AcDbEntity
  8
0
  6
CONTINUOUS
 62
     7
100
AcDbEllipse
 10
59.979288
 20
190.757875
 30
0.0
 11
0.0
 21
-1.5474378064851244
 31
0.0
210
0.0
220
0.0
230
1.0
 40
0.994855
 41
1.5707963267948823
 42
4.7123889803846968
  0
ELLIPSE
  5
FB
102
{ACAD_REACTORS
330
31
102
}
100
AcDbEntity
  8
0
  6
CONTINUOUS
 62
     7
100
AcDbEllipse
 10
59.979288
 20
190.757875
 30
0.0
 11
0.0
 21
-1.5474378064851244
 31
0.0
210
0.0
220
0.0
230
1.0
 40
0.994855
 41
4.7123889803846968
 42
1.5707963267948961
  0
ELLIPSE
  5
FC
102
{ACAD_REACTORS
330
31
102
}
100
AcDbEntity
  8
0
  6
CONTINUOUS
 62
     7
100
AcDbEllipse
 10
59.994645
 20
186.039778
 30
0.0
 11
0.0
 21
-1.5281792945341375
 31
0.0
210
0.0
220
0.0
230
1.0
 40
0.994855
 41
1.5707963267948823
 42
4.7123889803846968
  0
ELLIPSE
  5
FD
102
{ACAD_REACTORS
330
31
102
}
100
AcDbEntity
  8
0
  6
CONTINUOUS
 62
     7
100
AcDbEllipse
 10
59.994645
 20
186.039778
 30
0.0
 11
0.0
 21
-1.5281792945341375
 31
0.0
210
0.0
220
0.0
230
1.0
 40
0.994855
 41
4.7123889803846968
 42
1.5707963267948966
  0
ELLIPSE
  5
FE
102
{ACAD_REACTORS
330
31
102
}
100
AcDbEntity
  8
0
  6
CONTINUOUS
 62
     7
100
AcDbEllipse
 10
59.791016
 20
191.065488
 30
0.0
 11
2.6316402134932537
 21
-1.9148341346294107
 31
0.0
210
0.0
220
0.0
230
1.0
 40
0.675188
 41
-0.9177393610551201
 42
0.653056965739784
  0
ELLIPSE
  5
FF
102
{ACAD_REACTORS
330
31
102
}
100
AcDbEntity
  8
0
  6
CONTINUOUS
 62
     7
100
AcDbEllipse
 10
59.689506
 20
185.349608
 30
0.0
 11
-2.3945079055286205
 21
-2.4062496383314849
 31
0.0
210
0.0
220
0.0
230
1.0
 40
0.739614
 41
2.4377343344021529
 42
3.8454509727774391
  0
LWPOLYLINE
  5
100
102
{ACAD_REACTORS
330
31
102
}
100
AcDbEntity
  8
0
  6
CONTINUOUS
 62
     7
100
AcDbPolyline
 90
        4
 70
     1
 10
48.461742
 20
184.205963
 10
52.300924
 20
184.205963
 10
52.300924
 20
192.610949
 10
48.461742
 20
192.610949
  0
LWPOLYLINE
  5
101
102
{ACAD_REACTORS
330
31
102
}
100
AcDbEntity
  8
0
  6
CONTINUOUS
 62
     7
100
AcDbPolyline
 90
        4
 70
     1
 10
52.684842
 20
184.205963
 10
54.220515
 20
184.205963
 10
54.220515
 20
192.610949
 10
52.684842
 20
192.610949
  0
LWPOLYLINE
  5
102
102
{ACAD_REACTORS
330
31
102
}
100
AcDbEntity
  8
0
  6
CONTINUOUS
 62
     7
100
AcDbPolyline
 90
        4
 70
     1
 10
49.229578
 20
188.714091
 10
51.917006
 20
188.714091
 10
51.917006
 20
192.152495
 10
49.229578
 20
192.152495
  0
LWPOLYLINE
  5
103
102
{ACAD_REACTORS
330
31
102
}
100
AcDbEntity
  8
0
  6
CONTINUOUS
 62
     7
100
AcDbPolyline
 90
        4
 70
     1
 10
49.229578
 20
184.740825
 10
51.917006
 20
184.740825
 10
51.917006
 20
188.179229
 10
49.229578
 20
188.179229
  0
LWPOLYLINE
  5
104
102
{ACAD_REACTORS
330
31
102
}
100
AcDbEntity
  8
0
  6
CONTINUOUS
 62
     7
100
AcDbPolyline
 90
        4
 70
     1
 10
47.693905
 20
183.747509
 10
54.604433
 20
183.747509
 10
54.604433
 20
193.069402
 10
47.693905
 20
193.069402
  0
LWPOLYLINE
  5
105
102
{ACAD_REACTORS
330
31
102
}
100
AcDbEntity
  8
0
  6
CONTINUOUS
 62
     7
100
AcDbPolyline
 90
        4
 70
     1
 10
41.551214
 20
184.205963
 10
45.390396
 20
184.205963
 10
45.390396
 20
192.610949
 10
41.551214
 20
192.610949
  0
LWPOLYLINE
  5
106
102
{ACAD_REACTORS
330
31
102
}
100
AcDbEntity
  8
0
  6
CONTINUOUS
 62
     7
100
AcDbPolyline
 90
        4
 70
     1
 10
45.774314
 20
184.205963
 10
47.309987
 20
184.205963
 10
47.309987
 20
192.610949
 10
45.774314
 20
192.610949
  0
LWPOLYLINE
  5
107
102
{ACAD_REACTORS
330
31
102
}
100
AcDbEntity
  8
0
  6
CONTINUOUS
 62
     7
100
AcDbPolyline
 90
        4
 70
     1
 10
42.31905
 20
188.714091
 10
45.006478
 20
188.714091
 10
45.006478
 20
192.152495
 10
42.31905
 20
192.152495
  0
LWPOLYLINE
  5
108
102
{ACAD_REACTORS
330
31
102
}
100
AcDbEntity
  8
0
  6
CONTINUOUS
 62
     7
100
AcDbPolyline
 90
        4
 70
     1
 10
42.31905
 20
184.740825
 10
45.006478
 20
184.740825
 10
45.006478
 20
188.179229
 10
42.31905
 20
188.179229
  0
LWPOLYLINE
  5
109
102
{ACAD_REACTORS
330
31
102
}
100
AcDbEntity
  8
0
  6
CONTINUOUS
 62
     7
100
AcDbPolyline
 90
        4
 70
     1
 10
40.783377
 20
183.747509
 10
47.693905
 20
183.747509
 10
47.693905
 20
193.069402
 10
40.783377
 20
193.069402
  0
LWPOLYLINE
  5
10A
102
{ACAD_REACTORS
330
31
102
}
100
AcDbEntity
  8
0
  6
CONTINUOUS
 62
     7
100
AcDbPolyline
 90
        4
 70
     1
 10
57.070663
 20
189.552692
 10
55.53499
 20
189.552692
 10
55.53499
 20
191.386507
 10
57.070663
 20
191.386507
  0
LWPOLYLINE
  5
10B
102
{ACAD_REACTORS
330
31
102
}
100
AcDbEntity
  8
0
  6
CONTINUOUS
 62
     7
100
AcDbPolyline
 90
        4
 70
     1
 10
57.070663
 20
185.27379
 10
55.53499
 20
185.27379
 10
55.53499
 20
187.107605
 10
57.070663
 20
187.107605
  0
LINE
  5
10C
102
{ACAD_REACTORS
330
31
102
}
100
AcDbEntity
  8
0
  6
CONTINUOUS
 62
     7
100
AcDbLine
 10
61.024322
 20
191.89416
 30
0.0
 11
58.598717
 21
190.073172
 31
0.0
  0
LINE
  5
10D
102
{ACAD_REACTORS
330
31
102
}
100
AcDbEntity
  8
0
  6
CONTINUOUS
 62
     7
100
AcDbLine
 10
61.281586
 20
191.520724
 30
0.0
 11
58.855981
 21
189.699736
 31
0.0
  0
LINE
  5
10E
102
{ACAD_REACTORS
330
31
102
}
100
AcDbEntity
  8
0
  6
CONTINUOUS
 62
     7
100
AcDbLine
 10
61.059861
 20
187.130135
 30
0.0
 11
58.634256
 21
185.309147
 31
0.0
  0
LINE
  5
10F
102
{ACAD_REACTORS
330
31
102
}
100
AcDbEntity
  8
0
  6
CONTINUOUS
 62
     7
100
AcDbLine
 10
61.307735
 20
186.810002
 30
0.0
 11
58.88213
 21
184.989014
 31
0.0
  0
LINE
  5
110
102
{ACAD_REACTORS
330
31
102
}
100
AcDbEntity
  8
0
  6
CONTINUOUS
 62
     7
100
AcDbLine
 10
63.213355
 20
190.163964
 30
0.0
 11
63.213355
 21
186.496333
 31
0.0
  0
LINE
  5
111
102
{ACAD_REACTORS
330
31
102
}
100
AcDbEntity
  8
0
  6
CONTINUOUS
 62
     7
100
AcDbLine
 10
63.213355
 20
190.163964
 30
0.0
 11
63.981191
 21
190.163964
 31
0.0
  0
LWPOLYLINE
  5
112
102
{ACAD_REACTORS
330
31
102
}
100
AcDbEntity
  8
0
  6
CONTINUOUS
 62
     7
100
AcDbPolyline
 90
        3
 70
     0
 10
63.213355
 20
186.547273
 10
63.213355
 20
186.496333
 10
63.981191
 20
186.496333
  0
LWPOLYLINE
  5
113
102
{ACAD_REACTORS
330
31
102
}
100
AcDbEntity
  8
0
  6
CONTINUOUS
 62
     7
100
AcDbPolyline
 90
        4
 70
     1
 10
54.604433
 20
183.745611
 10
64.041804
 20
183.745611
 10
64.041804
 20
193.077208
 10
54.604433
 20
193.077208
  0
LINE
  5
114
102
{ACAD_REACTORS
330
31
102
}
100
AcDbEntity
  8
0
  6
CONTINUOUS
 62
     7
100
AcDbLine
 10
54.364099
 20
149.109699
 30
0.0
 11
54.378783
 21
148.210719
 31
0.0
  0
LINE
  5
115
102
{ACAD_REACTORS
330
31
102
}
100
AcDbEntity
  8
0
  6
CONTINUOUS
 62
     7
100
AcDbLine
 10
152.755423
 20
153.267199
 30
0.0
 11
163.263748
 21
153.267199
 31
0.0
  0
LINE
  5
116
102
{ACAD_REACTORS
330
31
102
}
100
AcDbEntity
  8
0
  6
CONTINUOUS
 62
     7
100
AcDbLine
 10
152.755423
 20
138.695654
 30
0.0
 11
163.263748
 21
138.695654
 31
0.0
  0
LWPOLYLINE
  5
117
102
{ACAD_REACTORS
330
31
102
}
100
AcDbEntity
  8
0
  6
CONTINUOUS
 62
     7
100
AcDbPolyline
 90
        3
 70
     0
 10
160.636667
 20
124.23795
 10
155.382504
 20
124.23795
 10
155.382504
 20
93.501098
  0
LINE
  5
118
102
{ACAD_REACTORS
330
31
102
}
100
AcDbEntity
  8
0
  6
CONTINUOUS
 62
     7
100
AcDbLine
 10
160.636667
 20
124.23795
 30
0.0
 11
160.636667
 21
93.501098
 31
0.0
  0
LINE
  5
119
102
{ACAD_REACTORS
330
31
102
}
100
AcDbEntity
  8
0
  6
CONTINUOUS
 62
     7
100
AcDbLine
 10
154.314158
 20
125.547112
 30
0.0
 11
154.314158
 21
112.853931
 31
0.0
  0
LINE
  5
11A
102
{ACAD_REACTORS
330
31
102
}
100
AcDbEntity
  8
0
  6
CONTINUOUS
 62
     7
100
AcDbLine
 10
161.424791
 20
125.547112
 30
0.0
 11
161.424791
 21
112.853931
 31
0.0
  0
LWPOLYLINE
  5
11B
102
{ACAD_REACTORS
330
31
102
}
100
AcDbEntity
  8
0
  6
CONTINUOUS
 62
     7
100
AcDbPolyline
 90
        4
 70
     0
 10
152.755423
 20
153.267199
 10
152.755423
 20
166.358821
 10
163.263748
 20
166.358821
 10
163.263748
 20
153.267199
  0
LINE
  5
11C
102
{ACAD_REACTORS
330
31
102
}
100
AcDbEntity
  8
0
  6
CONTINUOUS
 62
     7
100
AcDbLine
 10
152.755423
 20
152.128797
 30
0.0
 11
163.263748
 21
152.128797
 31
0.0
  0
LWPOLYLINE
  5
11D
102
{ACAD_REACTORS
330
31
102
}
100
AcDbEntity
  8
0
  6
CONTINUOUS
 62
     7
100
AcDbPolyline
 90
        4
 70
     1
 10
153.701172
 20
154.608394
 10
157.379086
 20
154.608394
 10
157.379086
 20
161.236012
 10
153.701172
 20
161.236012
  0
LINE
  5
11E
102
{ACAD_REACTORS
330
31
102
}
100
AcDbEntity
  8
0
  6
CONTINUOUS
 62
     7
100
AcDbLine
 10
153.806255
 20
161.236012
 30
0.0
 11
154.331672
 21
158.276167
 31
0.0
  0
LINE
  5
11F
102
{ACAD_REACTORS
330
31
102
}
100
AcDbEntity
  8
0
  6
CONTINUOUS
 62
     7
100
AcDbLine
 10
157.379086
 20
161.236012
 30
0.0
 11
156.85367
 21
158.276167
 31
0.0
  0
LINE
  5
120
102
{ACAD_REACTORS
330
31
102
}
100
AcDbEntity
  8
0
  6
CONTINUOUS
 62
     7
100
AcDbLine
 10
154.331672
 20
158.276167
 30
0.0
 11
156.85367
 21
158.276167
 31
0.0
  0
LINE
  5
121
102
{ACAD_REACTORS
330
31
102
}
100
AcDbEntity
  8
0
  6
CONTINUOUS
 62
     7
100
AcDbLine
 10
154.331672
 20
158.276167
 30
0.0
 11
154.331672
 21
157.365446
 31
0.0
  0
LINE
  5
122
102
{ACAD_REACTORS
330
31
102
}
100
AcDbEntity
  8
0
  6
CONTINUOUS
 62
     7
100
AcDbLine
 10
156.85367
 20
158.276167
 30
0.0
 11
156.85367
 21
157.365446
 31
0.0
  0
LWPOLYLINE
  5
123
102
{ACAD_REACTORS
330
31
102
}
100
AcDbEntity
  8
0
  6
CONTINUOUS
 62
     7
100
AcDbPolyline
 90
        3
 70
     0
 10
154.331672
 20
155.259402
 10
154.331672
 20
157.365446
 10
156.85367
 20
157.365446
  0
LINE
  5
124
102
{ACAD_REACTORS
330
31
102
}
100
AcDbEntity
  8
0
  6
CONTINUOUS
 62
     7
100
AcDbLine
 10
156.85367
 20
157.365446
 30
0.0
 11
156.85367
 21
155.259402
 31
0.0
  0
LINE
  5
125
102
{ACAD_REACTORS
330
31
102
}
100
AcDbEntity
  8
0
  6
CONTINUOUS
 62
     7
100
AcDbLine
 10
154.331672
 20
155.259402
 30
0.0
 11
156.85367
 21
155.259402
 31
0.0
  0
LWPOLYLINE
  5
126
102
{ACAD_REACTORS
330
31
102
}
100
AcDbEntity
  8
0
  6
CONTINUOUS
 62
     7
100
AcDbPolyline
 90
        4
 70
     1
 10
153.280839
 20
154.190569
 10
157.799419
 20
154.190569
 10
157.799419
 20
161.805213
 10
153.280839
 20
161.805213
  0
LWPOLYLINE
  5
127
102
{ACAD_REACTORS
330
31
102
}
100
AcDbEntity
  8
0
  6
CONTINUOUS
 62
     7
100
AcDbPolyline
 90
        4
 70
     1
 10
158.640085
 20
154.608394
 10
162.317999
 20
154.608394
 10
162.317999
 20
161.236012
 10
158.640085
 20
161.236012
  0
LINE
  5
128
102
{ACAD_REACTORS
330
31
102
}
100
AcDbEntity
  8
0
  6
CONTINUOUS
 62
     7
100
AcDbLine
 10
158.745168
 20
161.236012
 30
0.0
 11
159.270585
 21
158.276167
 31
0.0
  0
LINE
  5
129
102
{ACAD_REACTORS
330
31
102
}
100
AcDbEntity
  8
0
  6
CONTINUOUS
 62
     7
100
AcDbLine
 10
162.317999
 20
161.236012
 30
0.0
 11
161.792583
 21
158.276167
 31
0.0
  0
LINE
  5
12A
102
{ACAD_REACTORS
330
31
102
}
100
AcDbEntity
  8
0
  6
CONTINUOUS
 62
     7
100
AcDbLine
 10
159.270585
 20
158.276167
 30
0.0
 11
161.792583
 21
158.276167
 31
0.0
  0
LINE
  5
12B
102
{ACAD_REACTORS
330
31
102
}
100
AcDbEntity
  8
0
  6
CONTINUOUS
 62
     7
100
AcDbLine
 10
159.270585
 20
158.276167
 30
0.0
 11
159.270585
 21
157.365446
 31
0.0
  0
LINE
  5
12C
102
{ACAD_REACTORS
330
31
102
}
100
AcDbEntity
  8
0
  6
CONTINUOUS
 62
     7
100
AcDbLine
 10
161.792583
 20
158.276167
 30
0.0
 11
161.792583
 21
157.365446
 31
0.0
  0
LWPOLYLINE
  5
12D
102
{ACAD_REACTORS
330
31
102
}
100
AcDbEntity
  8
0
  6
CONTINUOUS
 62
     7
100
AcDbPolyline
 90
        3
 70
     0
 10
159.270585
 20
155.259402
 10
159.270585
 20
157.365446
 10
161.792583
 20
157.365446
  0
LINE
  5
12E
102
{ACAD_REACTORS
330
31
102
}
100
AcDbEntity
  8
0
  6
CONTINUOUS
 62
     7
100
AcDbLine
 10
161.792583
 20
157.365446
 30
0.0
 11
161.792583
 21
155.259402
 31
0.0
  0
LINE
  5
12F
102
{ACAD_REACTORS
330
31
102
}
100
AcDbEntity
  8
0
  6
CONTINUOUS
 62
     7
100
AcDbLine
 10
159.270585
 20
155.259402
 30
0.0
 11
161.792583
 21
155.259402
 31
0.0
  0
LWPOLYLINE
  5
130
102
{ACAD_REACTORS
330
31
102
}
100
AcDbEntity
  8
0
  6
CONTINUOUS
 62
     7
100
AcDbPolyline
 90
        4
 70
     1
 10
158.219752
 20
154.190569
 10
162.738332
 20
154.190569
 10
162.738332
 20
161.805213
 10
158.219752
 20
161.805213
  0
LWPOLYLINE
  5
131
102
{ACAD_REACTORS
330
31
102
}
100
AcDbEntity
  8
0
  6
CONTINUOUS
 62
     7
100
AcDbPolyline
 90
        4
 70
     1
 10
153.727443
 20
140.37837
 10
157.405357
 20
140.37837
 10
157.405357
 20
147.005988
 10
153.727443
 20
147.005988
  0
LINE
  5
132
102
{ACAD_REACTORS
330
31
102
}
100
AcDbEntity
  8
0
  6
CONTINUOUS
 62
     7
100
AcDbLine
 10
153.832526
 20
147.005988
 30
0.0
 11
154.357942
 21
144.046143
 31
0.0
  0
LINE
  5
133
102
{ACAD_REACTORS
330
31
102
}
100
AcDbEntity
  8
0
  6
CONTINUOUS
 62
     7
100
AcDbLine
 10
157.405357
 20
147.005988
 30
0.0
 11
156.879941
 21
144.046143
 31
0.0
  0
LINE
  5
134
102
{ACAD_REACTORS
330
31
102
}
100
AcDbEntity
  8
0
  6
CONTINUOUS
 62
     7
100
AcDbLine
 10
154.357942
 20
144.046143
 30
0.0
 11
156.879941
 21
144.046143
 31
0.0
  0
LINE
  5
135
102
{ACAD_REACTORS
330
31
102
}
100
AcDbEntity
  8
0
  6
CONTINUOUS
 62
     7
100
AcDbLine
 10
154.357942
 20
144.046143
 30
0.0
 11
154.357942
 21
143.135422
 31
0.0
  0
LINE
  5
136
102
{ACAD_REACTORS
330
31
102
}
100
AcDbEntity
  8
0
  6
CONTINUOUS
 62
     7
100
AcDbLine
 10
156.879941
 20
144.046143
 30
0.0
 11
156.879941
 21
143.135422
 31
0.0
  0
LWPOLYLINE
  5
137
102
{ACAD_REACTORS
330
31
102
}
100
AcDbEntity
  8
0
  6
CONTINUOUS
 62
     7
100
AcDbPolyline
 90
        3
 70
     0
 10
154.357942
 20
141.029378
 10
154.357942
 20
143.135422
 10
156.879941
 20
143.135422
  0
LINE
  5
138
102
{ACAD_REACTORS
330
31
102
}
100
AcDbEntity
  8
0
  6
CONTINUOUS
 62
     7
100
AcDbLine
 10
156.879941
 20
143.135422
 30
0.0
 11
156.879941
 21
141.029378
 31
0.0
  0
LINE
  5
139
102
{ACAD_REACTORS
330
31
102
}
100
AcDbEntity
  8
0
  6
CONTINUOUS
 62
     7
100
AcDbLine
 10
154.357942
 20
141.029378
 30
0.0
 11
156.879941
 21
141.029378
 31
0.0
  0
LWPOLYLINE
  5
13A
102
{ACAD_REACTORS
330
31
102
}
100
AcDbEntity
  8
0
  6
CONTINUOUS
 62
     7
100
AcDbPolyline
 90
        4
 70
     1
 10
153.30711
 20
139.960545
 10
157.82569
 20
139.960545
 10
157.82569
 20
147.575189
 10
153.30711
 20
147.575189
  0
LWPOLYLINE
  5
13B
102
{ACAD_REACTORS
330
31
102
}
100
AcDbEntity
  8
0
  6
CONTINUOUS
 62
     7
100
AcDbPolyline
 90
        4
 70
     1
 10
158.666356
 20
140.37837
 10
162.34427
 20
140.37837
 10
162.34427
 20
147.005988
 10
158.666356
 20
147.005988
  0
LINE
  5
13C
102
{ACAD_REACTORS
330
31
102
}
100
AcDbEntity
  8
0
  6
CONTINUOUS
 62
     7
100
AcDbLine
 10
158.771439
 20
147.005988
 30
0.0
 11
159.296855
 21
144.046143
 31
0.0
  0
LINE
  5
13D
102
{ACAD_REACTORS
330
31
102
}
100
AcDbEntity
  8
0
  6
CONTINUOUS
 62
     7
100
AcDbLine
 10
162.34427
 20
147.005988
 30
0.0
 11
161.818854
 21
144.046143
 31
0.0
  0
LINE
  5
13E
102
{ACAD_REACTORS
330
31
102
}
100
AcDbEntity
  8
0
  6
CONTINUOUS
 62
     7
100
AcDbLine
 10
159.296855
 20
144.046143
 30
0.0
 11
161.818854
 21
144.046143
 31
0.0
  0
LINE
  5
13F
102
{ACAD_REACTORS
330
31
102
}
100
AcDbEntity
  8
0
  6
CONTINUOUS
 62
     7
100
AcDbLine
 10
159.296855
 20
144.046143
 30
0.0
 11
159.296855
 21
143.135422
 31
0.0
  0
LINE
  5
140
102
{ACAD_REACTORS
330
31
102
}
100
AcDbEntity
  8
0
  6
CONTINUOUS
 62
     7
100
AcDbLine
 10
161.818854
 20
144.046143
 30
0.0
 11
161.818854
 21
143.135422
 31
0.0
  0
LWPOLYLINE
  5
141
102
{ACAD_REACTORS
330
31
102
}
100
AcDbEntity
  8
0
  6
CONTINUOUS
 62
     7
100
AcDbPolyline
 90
        3
 70
     0
 10
159.296855
 20
141.029378
 10
159.296855
 20
143.135422
 10
161.818854
 20
143.135422
  0
LINE
  5
142
102
{ACAD_REACTORS
330
31
102
}
100
AcDbEntity
  8
0
  6
CONTINUOUS
 62
     7
100
AcDbLine
 10
161.818854
 20
143.135422
 30
0.0
 11
161.818854
 21
141.029378
 31
0.0
  0
LINE
  5
143
102
{ACAD_REACTORS
330
31
102
}
100
AcDbEntity
  8
0
  6
CONTINUOUS
 62
     7
100
AcDbLine
 10
159.296855
 20
141.029378
 30
0.0
 11
161.818854
 21
141.029378
 31
0.0
  0
LWPOLYLINE
  5
144
102
{ACAD_REACTORS
330
31
102
}
100
AcDbEntity
  8
0
  6
CONTINUOUS
 62
     7
100
AcDbPolyline
 90
        4
 70
     1
 10
158.246023
 20
139.960545
 10
162.764603
 20
139.960545
 10
162.764603
 20
147.575189
 10
158.246023
 20
147.575189
  0
LINE
  5
145
102
{ACAD_REACTORS
330
31
102
}
100
AcDbEntity
  8
0
  6
CONTINUOUS
 62
     7
100
AcDbLine
 10
152.230007
 20
129.360758
 30
0.0
 11
163.851728
 21
129.360758
 31
0.0
  0
LINE
  5
146
102
{ACAD_REACTORS
330
31
102
}
100
AcDbEntity
  8
0
  6
CONTINUOUS
 62
     7
100
AcDbLine
 10
154.314158
 20
112.853931
 30
0.0
 11
153.280839
 21
82.91396
 31
0.0
  0
LINE
  5
147
102
{ACAD_REACTORS
330
31
102
}
100
AcDbEntity
  8
0
  6
CONTINUOUS
 62
     7
100
AcDbLine
 10
161.424791
 20
112.853931
 30
0.0
 11
162.738332
 21
82.85704
 31
0.0
  0
LINE
  5
148
102
{ACAD_REACTORS
330
31
102
}
100
AcDbEntity
  8
0
  6
CONTINUOUS
 62
     7
100
AcDbLine
 10
152.755423
 20
84.963083
 30
0.0
 11
152.755423
 21
82.91396
 31
0.0
  0
LINE
  5
149
102
{ACAD_REACTORS
330
31
102
}
100
AcDbEntity
  8
0
  6
CONTINUOUS
 62
     7
100
AcDbLine
 10
163.263748
 20
84.963083
 30
0.0
 11
163.263748
 21
83.0278
 31
0.0
  0
LINE
  5
14A
102
{ACAD_REACTORS
330
31
102
}
100
AcDbEntity
  8
0
  6
CONTINUOUS
 62
     7
100
AcDbLine
 10
152.755423
 20
82.91396
 30
0.0
 11
153.280839
 21
82.91396
 31
0.0
  0
LINE
  5
14B
102
{ACAD_REACTORS
330
31
102
}
100
AcDbEntity
  8
0
  6
CONTINUOUS
 62
     7
100
AcDbLine
 10
162.790874
 20
82.85704
 30
0.0
 11
163.841706
 21
82.85704
 31
0.0
  0
LINE
  5
14C
102
{ACAD_REACTORS
330
31
102
}
100
AcDbEntity
  8
0
  6
CONTINUOUS
 62
     7
100
AcDbLine
 10
152.755423
 20
84.963083
 30
0.0
 11
152.755423
 21
152.128797
 31
0.0
  0
LINE
  5
14D
102
{ACAD_REACTORS
330
31
102
}
100
AcDbEntity
  8
0
  6
CONTINUOUS
 62
     7
100
AcDbLine
 10
153.323966
 20
86.109495
 30
0.0
 11
162.59591
 21
86.109495
 31
0.0
  0
LINE
  5
14E
102
{ACAD_REACTORS
330
31
102
}
100
AcDbEntity
  8
0
  6
CONTINUOUS
 62
     7
100
AcDbLine
 10
153.350843
 20
84.942303
 30
0.0
 11
162.689799
 21
84.942303
 31
0.0
  0
LINE
  5
14F
102
{ACAD_REACTORS
330
31
102
}
100
AcDbEntity
  8
0
  6
CONTINUOUS
 62
     7
100
AcDbLine
 10
152.755423
 20
153.267199
 30
0.0
 11
152.755423
 21
152.128797
 31
0.0
  0
LINE
  5
150
102
{ACAD_REACTORS
330
31
102
}
100
AcDbEntity
  8
0
  6
CONTINUOUS
 62
     7
100
AcDbLine
 10
163.263748
 20
153.267199
 30
0.0
 11
163.263748
 21
152.128797
 31
0.0
  0
LINE
  5
151
102
{ACAD_REACTORS
330
31
102
}
100
AcDbEntity
  8
0
  6
CONTINUOUS
 62
     7
100
AcDbLine
 10
152.755423
 20
164.082017
 30
0.0
 11
152.230007
 21
164.082017
 31
0.0
  0
LINE
  5
152
102
{ACAD_REACTORS
330
31
102
}
100
AcDbEntity
  8
0
  6
CONTINUOUS
 62
     7
100
AcDbLine
 10
152.230007
 20
164.082017
 30
0.0
 11
152.230007
 21
82.91396
 31
0.0
  0
LWPOLYLINE
  5
153
102
{ACAD_REACTORS
330
31
102
}
100
AcDbEntity
  8
0
  6
CONTINUOUS
 62
     7
100
AcDbPolyline
 90
        3
 70
     0
 10
152.230007
 20
83.255481
 10
152.230007
 20
82.91396
 10
152.755423
 20
82.91396
  0
LINE
  5
154
102
{ACAD_REACTORS
330
31
102
}
100
AcDbEntity
  8
0
  6
CONTINUOUS
 62
     7
100
AcDbLine
 10
163.263748
 20
84.963083
 30
0.0
 11
163.263748
 21
152.128797
 31
0.0
  0
LWPOLYLINE
  5
155
102
{ACAD_REACTORS
330
31
102
}
100
AcDbEntity
  8
0
  6
CONTINUOUS
 62
     7
100
AcDbPolyline
 90
        3
 70
     0
 10
163.263748
 20
164.082017
 10
163.85922
 20
164.082017
 10
163.841706
 20
82.91396
  0
LINE
  5
156
102
{ACAD_REACTORS
330
31
102
}
100
AcDbEntity
  8
0
  6
CONTINUOUS
 62
     7
100
AcDbLine
 10
163.263748
 20
82.85704
 30
0.0
 11
163.841706
 21
82.85704
 31
0.0
  0
LINE
  5
157
102
{ACAD_REACTORS
330
31
102
}
100
AcDbEntity
  8
0
  6
CONTINUOUS
 62
     7
100
AcDbLine
 10
152.755423
 20
165.78962
 30
0.0
 11
163.263748
 21
165.78962
 31
0.0
  0
LINE
  5
158
102
{ACAD_REACTORS
330
31
102
}
100
AcDbEntity
  8
0
  6
CONTINUOUS
 62
     7
100
AcDbLine
 10
152.755423
 20
151.559596
 30
0.0
 11
163.263748
 21
151.559596
 31
0.0
  0
LINE
  5
159
102
{ACAD_REACTORS
330
31
102
}
100
AcDbEntity
  8
0
  6
CONTINUOUS
 62
     7
100
AcDbLine
 10
152.755423
 20
134.483567
 30
0.0
 11
163.263748
 21
134.483567
 31
0.0
  0
LWPOLYLINE
  5
15B
102
{ACAD_REACTORS
330
31
102
}
100
AcDbEntity
  8
\U+5BF8\U+6CD5
  6
CONTINUOUS
100
AcDbPolyline
 90
        2
 70
     1
 10
40.783377
 20
200.972787
 10
40.783377
 20
194.208898
  0
LWPOLYLINE
  5
15C
102
{ACAD_REACTORS
330
31
102
}
100
AcDbEntity
  8
\U+5BF8\U+6CD5
  6
CONTINUOUS
100
AcDbPolyline
 90
        2
 70
     1
 10
137.69349
 20
200.972787
 10
137.69349
 20
194.208898
  0
LINE
  5
15D
102
{ACAD_REACTORS
330
31
102
}
100
AcDbEntity
  8
\U+5BF8\U+6CD5
  6
CONTINUOUS
100
AcDbLine
 10
89.238434
 20
197.445009
 30
0.0
 11
40.783377
 21
197.445009
 31
0.0
  0
LINE
  5
15E
102
{ACAD_REACTORS
330
31
102
}
100
AcDbEntity
  8
\U+5BF8\U+6CD5
  6
CONTINUOUS
100
AcDbLine
 10
89.238434
 20
197.445009
 30
0.0
 11
137.69349
 21
197.445009
 31
0.0
  0
MTEXT
  5
160
100
AcDbEntity
  8
\U+5BF8\U+6CD5
100
AcDbMText
 10
91.176636
 20
203.444262
 30
0.0
 40
3.031693
 41
6.632454
 71
     5
 72
     5
  1
\C7;\fＭＳ Ｐゴシック|b0|i0|;\H3.0316932797432;105
  7
HORIZONTALBIGFONT
  0
LWPOLYLINE
  5
161
102
{ACAD_REACTORS
330
31
102
}
100
AcDbEntity
  8
\U+5BF8\U+6CD5
  6
CONTINUOUS
100
AcDbPolyline
 90
        2
 70
     1
 10
182.466274
 20
82.936582
 10
189.230163
 20
82.936582
  0
LWPOLYLINE
  5
162
102
{ACAD_REACTORS
330
31
102
}
100
AcDbEntity
  8
\U+5BF8\U+6CD5
  6
CONTINUOUS
100
AcDbPolyline
 90
        2
 70
     1
 10
182.466274
 20
166.279279
 10
189.230163
 20
166.279279
  0
LINE
  5
163
102
{ACAD_REACTORS
330
31
102
}
100
AcDbEntity
  8
\U+5BF8\U+6CD5
  6
CONTINUOUS
100
AcDbLine
 10
185.994052
 20
124.60793
 30
0.0
 11
185.994052
 21
82.936582
 31
0.0
  0
LINE
  5
164
102
{ACAD_REACTORS
330
31
102
}
100
AcDbEntity
  8
\U+5BF8\U+6CD5
  6
CONTINUOUS
100
AcDbLine
 10
185.994052
 20
124.60793
 30
0.0
 11
185.994052
 21
166.279279
 31
0.0
  0
MTEXT
  5
165
100
AcDbEntity
  8
\U+5BF8\U+6CD5
100
AcDbMText
 10
177.994799
 20
124.60793
 30
0.0
 40
3.031693
 41
4.868512
 71
     5
 72
     5
  1
\C7;\fＭＳ Ｐゴシック|b0|i0|;\H3.0316932797432;90
  7
HORIZONTALBIGFONT
 11
0.0
 21
1.0
 31
0.0
  0
LINE
  5
166
102
{ACAD_REACTORS
330
31
102
}
100
AcDbEntity
  8
0
  6
CONTINUOUS
 62
     7
100
AcDbLine
 10
165.797422
 20
166.279279
 30
0.0
 11
176.457535
 21
166.279279
 31
0.0
  0
LINE
  5
167
102
{ACAD_REACTORS
330
31
102
}
100
AcDbEntity
  8
0
  6
CONTINUOUS
 62
     7
100
AcDbLine
 10
176.457535
 20
166.279279
 30
0.0
 11
182.729773
 21
166.279279
 31
0.0
  0
LINE
  5
168
102
{ACAD_REACTORS
330
31
102
}
100
AcDbEntity
  8
0
  6
CONTINUOUS
 62
     7
100
AcDbLine
 10
166.766523
 20
82.936582
 30
0.0
 11
189.284665
 21
82.936582
 31
0.0
  0
LWPOLYLINE
  5
169
102
{ACAD_REACTORS
330
31
102
}
100
AcDbEntity
  8
\U+5BF8\U+6CD5
  6
CONTINUOUS
100
AcDbPolyline
 90
        2
 70
     1
 10
152.230007
 20
178.745259
 10
152.230007
 20
169.98137
  0
LWPOLYLINE
  5
16A
102
{ACAD_REACTORS
330
31
102
}
100
AcDbEntity
  8
\U+5BF8\U+6CD5
  6
CONTINUOUS
100
AcDbPolyline
 90
        2
 70
     1
 10
163.85922
 20
178.745259
 10
163.85922
 20
169.98137
  0
LINE
  5
16B
102
{ACAD_REACTORS
330
31
102
}
100
AcDbEntity
  8
\U+5BF8\U+6CD5
  6
CONTINUOUS
100
AcDbLine
 10
158.044613
 20
175.217481
 30
0.0
 11
152.230007
 21
175.217481
 31
0.0
  0
LINE
  5
16C
102
{ACAD_REACTORS
330
31
102
}
100
AcDbEntity
  8
\U+5BF8\U+6CD5
  6
CONTINUOUS
100
AcDbLine
 10
158.044613
 20
175.217481
 30
0.0
 11
163.85922
 21
175.217481
 31
0.0
  0
MTEXT
  5
16D
100
AcDbEntity
  8
\U+5BF8\U+6CD5
100
AcDbMText
 10
158.044613
 20
178.216733
 30
0.0
 40
3.031693
 41
7.349077
 71
     5
 72
     5
  1
\C7;\fＭＳ Ｐゴシック|b0|i0|;\H3.0316932797432;12.6
  7
HORIZONTALBIGFONT
  0
MTEXT
  5
16E
100
AcDbEntity
  8
\U+5BF8\U+6CD5
100
AcDbMText
 10
120.718931
 20
172.578436
 30
0.0
 40
2.728516
 41
37.825522
 71
     5
 72
     5
  1
\C7;\fＭＳ Ｐゴシック|b0|i0|;\H2.728515625;\M+188C0\M+19153\M+18FEA\M+18F8A\M+191A4\P\M+1925B\M+18E71
  7
HORIZONTALBIGFONT
  0
MTEXT
  5
16F
100
AcDbEntity
  8
\U+5BF8\U+6CD5
100
AcDbMText
 10
52.198405
 20
173.547537
 30
0.0
 40
2.728516
 41
32.408708
 71
     5
 72
     5
  1
\C7;\fＭＳ Ｐゴシック|b0|i0|;\H2.728515625;\M+18AEB\M+18CAF\M+18FEA\M+18F8A\M+191A4\P\M+1925B\M+18E71
  7
HORIZONTALBIGFONT
  0
ENDSEC
  0
SECTION
  2
OBJECTS
  0
DICTIONARY
  5
C
100
AcDbDictionary
  3
ACAD_GROUP
350
D
  3
ACAD_MLINESTYLE
350
1B
  0
DICTIONARY
  5
D
102
{ACAD_REACTORS
330
C
102
}
100
AcDbDictionary
  3
VISIOGROUP_0
350
31
  0
DICTIONARY
  5
1B
102
{ACAD_REACTORS
330
C
102
}
100
AcDbDictionary
  3
STANDARD
350
1C
  0
MLINESTYLE
  5
1C
102
{ACAD_REACTORS
330
1B
102
}
100
AcDbMlineStyle
  2
STANDARD
 70
     0
  3

 62
   256
 51
90.0
 52
90.0
 71
     2
 49
0.5
 62
   256
  6
BYLAYER
 49
-0.5
 62
   256
  6
BYLAYER
  0
GROUP
  5
31
102
{ACAD_REACTORS
330
D
102
}
100
AcDbGroup
300
Group created by Visio.
 70
     0
 71
     1
340
32
340
33
340
34
340
35
340
36
340
37
340
38
340
39
340
3A
340
3B
340
3C
340
3D
340
3E
340
3F
340
40
340
41
340
42
340
43
340
44
340
45
340
46
340
47
340
48
340
49
340
4A
340
4B
340
4C
340
4D
340
4E
340
4F
340
50
340
51
340
52
340
53
340
54
340
55
340
56
340
57
340
58
340
59
340
5A
340
5B
340
5C
340
5D
340
5E
340
5F
340
60
340
61
340
62
340
63
340
64
340
65
340
66
340
67
340
68
340
69
340
6A
340
6B
340
6C
340
6D
340
6E
340
6F
340
70
340
71
340
72
340
73
340
74
340
75
340
76
340
77
340
78
340
79
340
7A
340
7B
340
7C
340
7D
340
7E
340
7F
340
80
340
81
340
82
340
83
340
84
340
85
340
86
340
87
340
88
340
89
340
8A
340
8B
340
8C
340
8D
340
8E
340
8F
340
90
340
91
340
92
340
93
340
94
340
95
340
96
340
97
340
98
340
99
340
9A
340
9B
340
9C
340
9D
340
9E
340
9F
340
A0
340
A1
340
A2
340
A3
340
A4
340
A5
340
A6
340
A7
340
A8
340
A9
340
AA
340
AB
340
AC
340
AD
340
AE
340
AF
340
B0
340
B1
340
B2
340
B3
340
B4
340
B5
340
B6
340
B7
340
B8
340
B9
340
BA
340
BB
340
BC
340
BD
340
BE
340
BF
340
C0
340
C1
340
C2
340
C3
340
C4
340
C5
340
C6
340
C7
340
C8
340
C9
340
CA
340
CB
340
CC
340
CD
340
CE
340
CF
340
D0
340
D1
340
D2
340
D3
340
D4
340
D5
340
D6
340
D7
340
D8
340
D9
340
DA
340
DB
340
DC
340
DD
340
DE
340
DF
340
E0
340
E1
340
E2
340
E3
340
E4
340
E5
340
E6
340
E7
340
E8
340
E9
340
EA
340
EB
340
EC
340
ED
340
EE
340
EF
340
F0
340
F1
340
F2
340
F3
340
F4
340
F5
340
F6
340
F7
340
F8
340
F9
340
FA
340
FB
340
FC
340
FD
340
FE
340
FF
340
100
340
101
340
102
340
103
340
104
340
105
340
106
340
107
340
108
340
109
340
10A
340
10B
340
10C
340
10D
340
10E
340
10F
340
110
340
111
340
112
340
113
340
114
340
115
340
116
340
117
340
118
340
119
340
11A
340
11B
340
11C
340
11D
340
11E
340
11F
340
120
340
121
340
122
340
123
340
124
340
125
340
126
340
127
340
128
340
129
340
12A
340
12B
340
12C
340
12D
340
12E
340
12F
340
130
340
131
340
132
340
133
340
134
340
135
340
136
340
137
340
138
340
139
340
13A
340
13B
340
13C
340
13D
340
13E
340
13F
340
140
340
141
340
142
340
143
340
144
340
145
340
146
340
147
340
148
340
149
340
14A
340
14B
340
14C
340
14D
340
14E
340
14F
340
150
340
151
340
152
340
153
340
154
340
155
340
156
340
157
340
158
340
159
340
15B
340
15C
340
15D
340
15E
340
161
340
162
340
163
340
164
340
166
340
167
340
168
340
169
340
16A
340
16B
340
16C
  0
ENDSEC
  0
EOF
